Avicii - Levels Chords & Tabs

 

Levels Chords & Tabs

Avicii Chords & Tabs

Version: 11 Type: Tab 0 ratings
1 star 2 stars 3 stars 4 stars 5 stars
comments

Levels Tab

   
-------------------------------------------------------------------------------
                             LEVELS - Avicii
-------------------------------------------------------------------------------
Tabbed by: Jackie_tab
Email: jcresnar@gmail.com

This is a tab of the tapping part this guy
http://www.youtube.com/watch?v=lKH5DYz3iAg
didn't post.

I don't know why he tuned his guitar 1/2 step down, I'm guessing since you need to tune 
by ear to match the song's tuning which isn't completely 1/2 step down but it isn't 
completely standard E either.

Anyway, tuning aside, in 1/2 step down, the fast tapping part is

Tuning: 1/2 step down Eb Ab Db Gb Bb Eb


eb|-10-10-13-10-10t17-10h13t18-10h13-t17-10-13-13-10--------------------------|
Bb|---------------------------------------------------------------------------|
Gb|---------------------------------------------------------------------------|
Db|---------------------------------------------------------------------------|
Ab|---------------------------------------------------------------------------|
Eb|---------------------------------------------------------------------------|

eb|-10-10-13-10-10t18-10h13t17-10t22\21\20-10-13-13-10------------------------|
Bb|---------------------------------------------------------------------------|
Gb|---------------------------------------------------------------------------|
Db|---------------------------------------------------------------------------|
Ab|---------------------------------------------------------------------------|
Eb|---------------------------------------------------------------------------|

Then this melody repeats throughout the song

eb|--/15--13--13---------/13--13--13--13--12--12--13--13----------------------|
Bb|---------------------------------------------------------------------------|
Gb|---------------------------------------------------------------------------|
Db|---------------------------------------------------------------------------|
Ab|---------------------------------------------------------------------------|
Eb|---------------------------------------------------------------------------|

eb|--t/22h20h17--/15--13--13----/13--13--13--13-------------------------------|
Bb|----------------------------------------------15--15--13--13---------------|
Gb|---------------------------------------------------------------------------|
Db|---------------------------------------------------------------------------|
Ab|---------------------------------------------------------------------------|
Eb|---------------------------------------------------------------------------|

In the original song (0:53), there is a part where you just slide between two notes (the 
melody plays while this is playing so play either for your cover)
eb|--22\13----13/22-----------------------------------------------------------|
Bb|---------------------------------------------------------------------------|
Gb|---------------------------------------------------------------------------|
Db|---------------------------------------------------------------------------|
Ab|---------------------------------------------------------------------------|
Eb|---------------------------------------------------------------------------|
[ Tab from: http://www.guitartabs.cc/tabs/a/avicii/levels_tab_ver_11.html ]
If you choose, you can use the song's chords for the singing part
(with guitar 1/2 step down)
Dm F C Bb

For E standard, play everything 1 fret lower
Tuning: E standard E A D G B E

e|-9-9-12-9-9t16-9h12t16-9h12t17-9-12-12-9-----------------------------------|
B|---------------------------------------------------------------------------|
G|---------------------------------------------------------------------------|
D|---------------------------------------------------------------------------|
A|---------------------------------------------------------------------------|
E|---------------------------------------------------------------------------|

e|-9-9-12-9-9t17-9h12t16-9t21\20\19-9-12-12-9--------------------------------|
B|---------------------------------------------------------------------------|
G|---------------------------------------------------------------------------|
D|---------------------------------------------------------------------------|
A|---------------------------------------------------------------------------|
E|---------------------------------------------------------------------------|

Melody that repeats throughout the song

e|--/14--12--12---------/12--12--12--12--11--11--12--12----------------------|
B|---------------------------------------------------------------------------|
G|---------------------------------------------------------------------------|
D|---------------------------------------------------------------------------|
A|---------------------------------------------------------------------------|
E|---------------------------------------------------------------------------|

e|--t/21h19h16--/14--12--12----/14--14--14--14-------------------------------|
B|----------------------------------------------14--14--12--12---------------|
G|---------------------------------------------------------------------------|
D|---------------------------------------------------------------------------|
A|---------------------------------------------------------------------------|
E|---------------------------------------------------------------------------|

In the original song (0:53), there is a part where you just slide between two notes (the 
melody plays while this is playing so play either for your cover)
e|--21\12/21-----------------------------------------------------------------|
B|---------------------------------------------------------------------------|
G|---------------------------------------------------------------------------|
D|---------------------------------------------------------------------------|
A|---------------------------------------------------------------------------|
E|---------------------------------------------------------------------------|

The chords in E standard are
C#m E B A


************************************

| /   slide up
| \   slide down
| h   hammer-on
| p   pull-off
| t   tapping
| ~   vibrato
| +   harmonic
| x   Mute note
| B   Bend
| pb  Pre-bend
| br  Bend release
| pbr Pre-bend release
| brb Bend release bend

***********************************

I don't feel like writing the arrangement down since this song is made of repetitions of 
the main melody, the tapping part and underlying chords.
Just listen to the song and you'll get it :)

Enjoy!
Comments