Avenged Sevenfold - Wicked End Chords & Tabs

 

Wicked End Chords & Tabs

Avenged Sevenfold Chords & Tabs

Version: 1 Type: Tab 0 ratings
1 star 2 stars 3 stars 4 stars 5 stars
comments

Wicked End Tab

Its been bothering me for quite some time now, so I decided I'd throw this one out there
for all you other A7x fans. I really love this song and seeing that its nowhere else to
be found I guess I had an obligation to my favorite band.

E----4-5-4-1-4-1-0-1---5-1-4-1-4-1-0-1--------------|This is only for
B---(Not sure if its picked or all tapping)---------| the part out of the left
G---------------------------------------------------|ear. Take it up a few
D---------------------------------------------------|steps and you should get
A---------------------------------------------------|it right.
E---------------------------------------------------|

E--13p10--------------/17-16~----------------------|
B--------12----------------------------------------|
G-----------13p10t13-------------------------------|
D--------------------------------------------------|
A--------------------------------------------------|
E--------------------------------------------------|
[ Tab from: http://www.guitartabs.cc/tabs/a/avenged_sevenfold/wicked_end_tab.html ]
E--13p10--------------/17~-16h17p16----------------|
B--------12-------------------------18-17h18-------|
G-----------13p10t13-------------------------------|
D--------------------------------------------------|
A--------------------------------------------------|
E--------------------------------------------------|

E-------------------|------------------------------|
B-------------------|------------------------------|
G-------------------|------------------------------|
D-------------------|------------------------------|
A---6p5--5p3--1h3---|---6p5--6h8--8h10-------------|
E000---00---00---000|000---00---00----000----------|

E--------------------------------------------------|Right before they
B--------------------------------------------------|go to the next part
G--------------------------------------------------|(Play Kinda Fast)
D--------------------------------------------------|
A-5-7-8~-7-8-10~-0-1-4~-4-/7-----------------------|
E--------------------------------------------------|

E--------------------------------------------------|
B--------------------------------------------------|
G--------------------------------------------------|
D-0--8--5--3-2-------------------------------------|
A-0--8--5--3-2-------------------------------------|
E-0--8--5--3-2-------------------------------------|

Thats about it so far, I'll add more when the time comes.
Comments