Avenged Sevenfold - Wicked End Chords & Tabs

 

Wicked End Chords & Tabs

Avenged Sevenfold Chords & Tabs

Version: 1 Type: Bass Tab 0 ratings
1 star 2 stars 3 stars 4 stars 5 stars
comments

Wicked End Bass Tab

Band- Avenged Sevenfold
Song- The Wicked End

Intro
G ------------------|4x
D 6767-67--7676-76--|
A ----7--------7----|
D ------------------|

      Intro pt.2
G --------------------------|4x
D --------------------------|
A --------------------------|
D 00--00-00--00-0000000-00--|
[ Tab from: http://www.guitartabs.cc/tabs/a/avenged_sevenfold/wicked_end_btab.html ]
      Verse
G ----------------------4x with some fills around 3 and 5-|
D --------------------------------------------------------|
A --------------------------------------------------------|
D 000000-00-00-0000000------------------------------------|

      Chorus
G ------------------------------------|6x
D ------------------------------------|
A 5-5-555--1-1-111--------------------|
D -----------------5-5-555--333-22222-|

intro pt 2 2x
verse 4x
chorus 8x

thats about the whole song.
Comments