Avenged Sevenfold - We Come Out At Night Chords & Tabs

 

We Come Out At Night Chords & Tabs

Avenged Sevenfold Chords & Tabs

Version: 1 Type: Bass Tab 0 ratings
1 star 2 stars 3 stars 4 stars 5 stars
comments

We Come Out At Night Bass Tab

   
Band- Avenged Sevenfold
Song- We Come Out At Night

Intro 		      6x	
G|----------------------|
D|-------------------3~-|
A|-------------------1~-|
D|-00--000110110000-----|

Verse	1
G|-----------------------------------------|
D|-----------------------------------------|
A|-----------------------------------------|
D|-1-/4-310-3-6-4-34-78-1-11-4-310-3-6-4-3-|

Verse	2           4x
G|--------------------|
D|--------------------|
A|--------------------|
D|-11---11---00---00--|

Bridge		       4x	
G|-----------------------|-------------|
D|-----------------------|-------------|
A|-1--3--0---------------|-1--3--0-----|
D|---------00---00---00--|---------0~--|
[ Tab from: http://www.guitartabs.cc/tabs/a/avenged_sevenfold/we_come_out_at_night_btab.html ]
Chorus									    2x
G|----------------------------------------------------------------------------|
D|----------------------------------------------------------------------------|
A|----------33333333----------------------------33333333----------------------|
D|-00000000----------333333-2353235323-00000000----------33333333-333-222-333-|

Interlude
G|---------------------------------------|
D|---------------------------------------|
A|---------------------------------------|
D|-0----1-0----0-1~---1-0----1-0---0-1~--|

Breakdown				  2x                             4x
G|------------------------------------------|------------------------------|
D|------------------------------------------|------------------------------|
A|--/5--------/5--------/6--------/6---76---|------------------------------|
D|-0---6-5-610---6-5-601---7-6-721---6----1-|-000-000-000~---111-111-111~--|
					2x		  4x	
G|---------------------------------------|------------------|----|    |-------------|
D|---------------------------------------|------------------|----|    |-------------|
A|-----------------------------------356-|-------------2356-|----|    |-------------|
D|-00-01-4-1p0-00134--00-01-4-1p0-00-----|-00-0-0-0000------|-0~-|REST|-333-222-333-|

Chorus	2x
Comments