Avenged Sevenfold - Warmness On The Soul Chords & Tabs

 

Warmness On The Soul Chords & Tabs

Avenged Sevenfold Chords & Tabs

Version: 1 Type: Tab 0 ratings
1 star 2 stars 3 stars 4 stars 5 stars
comments

Warmness On The Soul Tab

+--------KEY----------+
| \ -Slide Down       |
| h -Hammer On        |
| / -Slide Up         |
| P -Pull Off         |
| ~ -Let Ring/Vibrato | 
+---------------------+ 

[ Tab from: http://www.guitartabs.cc/tabs/a/avenged_sevenfold/warmness_on_the_soul_tab.html ]
Solo: 
e-|---------------------------------------------------------------------------- 
B-|---------------------------------------------------------------------------- 
G-|--------------------------------------9-7-44\5~7\9-9/7-4-4h5p4-2~~9\12-7-\14 
D-|-----5-7-5~~7-5-3\4----------------7h9-------------------------------------- 
A-|-\5-7---------------7-55~2-2/7~~7h9----------------------------------------- 
E-|---------------------------------------------------------------------------- 


e-|--------------------------------------------------------------------------- 
B-|--------------------------------------------------------------------------- 
G-|9-55\7-5~7\99/7-7--12-11---12-11---12\14-12-11-12-11----------11-12-11~~~~~ 
D-|------------------------12------12-------------------12\14~~14------------- 
A-|--------------------------------------------------------------------------- 
E-|---------------------------------------------------------------------------
Comments