Avenged Sevenfold - Warmness On The Soul Chords & Tabs

 

Warmness On The Soul Chords & Tabs

Avenged Sevenfold Chords & Tabs

Version: 1 Type: Bass Tab 0 ratings
1 star 2 stars 3 stars 4 stars 5 stars
comments

Warmness On The Soul Bass Tab

Band- Avenged Sevenfold
Song- Warmness Of The Soul

Guitar Solo:
G |----------|-----------------------|-------------------|------------|
D |----------|---------5-4-2-0-------|-------------------|------------|
A |----------|--3~-5~----------3-2-0-|-3~-5~-10~-9~-7~-5~|-3~-5-------|
D |-5~-4~-2~-|-----------------------|-------------------|--------5-4-|

Verse: 4x
G |--------------------|
D |--------------------|
A |-----3-------5------|
D |-2-------5----------|
[ Tab from: http://www.guitartabs.cc/tabs/a/avenged_sevenfold/warmness_on_the_soul_btab.html ]
Chorus:
G |-------------------------|--------------|----------------|
D |-------------------------|--------------|----------------|
A |--3~---5~---------3~--5~-|--------------|--3~--5---------|
D |------------2~-----------|--5~-4~-2~-0~-|------------5-4-|

Piano Solo: 
G |---------------|------------------------|--------------------------------|
D |---------------|------------------5-2-0-|-2---2-5-4----------------------|
A |-----3~----3/5~|----3~----5~----5-------|-----------5-3--2-3-5~----3/5~--|
D |-2~-----5~-----|-2~----5~---------------|------------------------------4/|

G |---------------------------|
D |---------------------------|
A |----2/3~--------3/5~--5~---|
D |-2~------0-4-5~------------|

Chorus/Outro:
G |-------------------------|--------------|----------|
D |-------------------------|--------------|----------|
A |--3~---5~---------3~--5~-|--------------|--3~--5---|
D |------------2~-----------|--5~-4~-2~-0~-|----------|
END
Comments