Avenged Sevenfold - Warmness On The Soul Acoustic Chords & Tabs

 

Warmness On The Soul Acoustic Chords & Tabs

Avenged Sevenfold Chords & Tabs

Version: 1 Type: Tab 0 ratings
1 star 2 stars 3 stars 4 stars 5 stars
comments

Warmness On The Soul Acoustic Tab

---------------------------------------------------------------------------------------------------------------------------
			     WARMNESS ON THE SOUL - Avenged Sevenfold
---------------------------------------------------------------------------------------------------------------------------
Tabbed by:  Paul Fake
Email:  trashpilepunker@hotmail.com


Obviously, this song is normally played on piano.  I, however, have taken the liberty to learn it on guitar and post it, because nobody else has.  Enjoy.

Capo at 2nd fret; must be fingerpicked just 'cause

Intro:

|---1----1--0--------------------------------------------------------------------------------0h1------|
|---3----------3---------3--------3----1--------------------------1---------------------1h3-----------|
|---2------------2-------3------3---------3--2--------2-----0-----0--------------0h2h3----------------|
|---0--------------3--2-------3-----3--------3------3----------3--2-------0h2h3-----------------------|
|------------------------1--1----------------0----0-----0---------------------------------------------|
|-----------------------------------------------------------------------------------------------------|


|--1---------1----0---------------------------------------------------------0--------1-------|
|--3----------------3--3-----------3----1--------------------------1--------1--3--1--3-------|
|--2------------0------3---------3---------3--2---------2--0---0---0-----------------2-------|
|--0-------0-------------------3------3-------3-------3------3-----2-----2-----------0-------|
|--------0-------------------1----------------0-----0-----------------0----------------------|
|--------------------------------------------------------------------------------------------|


Verse 1:

|----------1-------------------------------------------------------0------0----------------|
|---------------3--1------------3-----1-------------------1--------1------1---3--1--3------|
|-------2-------------3-------3-----------3---2-----------0-------------------------2------|
|----0-------0--------3----3-------3----------3-------3--------0------0--------------------|
|-0-------------------1--1--------------------0-----0--------0------0----------------------|
|------------------------------------------------------------------------------------------|


|-----------1----0--------------------------------------------------0------------------------1--|
|-------------------3--3------------3-------1-------------1---------1--------------2---2-----3--|
|-------2--------------3---------3-------3-----2----------0----------------------------------2--|
|----0--------0---------------3-------3--------3-------3--------0----------------------------0--|
|-0------------------------1-------------------0----0--------0----------0-----4----4---4--------|
|-----------------------------------------------------------------------------------------------|


|-----------1--------------------------------------------------------0-------0----------------|
|------------------3--1------------3--1------------------------------1-------1---3--1--3------|
|-------2----------------3------3--------3------2---------2----------------------------2------|
|----0---------0---------3----3-----------------3------3--3------0--------0-------------------|
|-0----------------------1--1---------------0---0----0----0----0--------0---------------------|
|---------------------------------------------------------------------------------------------|



|----------1------------------------------------------------------0------0----------------|
|---------------3--1------------3-----1-------------------1-------1------1---3--1---------|
|-------2-------------3-------3-----------3---2-----------0-------------------------------|
|----0-------0--------3----3-------3----------3-------3--------0------0-------------------|
|-0-------------------1--1--------------------0-----0--------0------0---------------------|
|-----------------------------------------------------------------------------------------|



|--------------------0---------0--------|
|--3-----3-----1---------------1--------|
|--3--------------3--0------0-------0---|
|----0-0---0--------------0-------0-----|
|---------------------------------------|
|---------------------------------------|



|--5----------5---------5---------5--3---------------------------1---------------------------------1------|
|--6------6---5------5--3----3h5--------6p5----3-----3-------------3-------3/5---------------------3------|
|-------5----------5-------------------------------------------------------------------------------2------|
|-----------------------------------------------------------------------------------------3----2---0------|
|-------------------------------------------------1------1--1----------1---1/3----------------------------|
|-----------------------------------------------------------------------------------------1----0----------|

Unfotunately, none of the verses (or choruses for that matter) are repeated perfectly, so I continue
Verse 2:

|------------1--------0-------------------------------------------------------0---------0----------------|
|-------------------------3--3------------3--1--------------------------------1---------1---3--1---3-----|
|--------2-------------------3---------3--------3------2----------2--------------------------------2-----|
|-----0---------0-------------------3------------------3-------3--3-------0---------0--------------------|
|--0-----------------------------1-----------------0---0-----0----0-----0---------0----------------------|
|--------------------------------------------------------------------------------------------------------|



|-----------1---------0---------------3----1---0--------------------0----------0-----0------------1-----|
|-------------------------3--3-------------3-------3---1------------1----------1----------2--2----3-----|
|--------2-------------------3-------------------------0------------------------------------------2-----|
|-----0--------0-------------------3-----------------------------0---------0----------------------0-----|
|--0-----------------------------1-----------------------------0---------0---------0------4--4----------|
|-------------------------------------------------------------------------------------------------------|


|------------5------3--1--------------------------------------------------------0----------0--------------|
|--------------------------3---------------3-----1------------------1-----------1----------1---3--1--3----|
|--------2-----------------3-----------3------------3---2-----------0--------------------------------2----|
|-----0---------0----------3-------3---------3----------3-------3----------0----------0-------------------|
|--0----------------------------1-----------------------0-----0----------0----------0---------------------|
|---------------------------------------------------------------------------------------------------------|



|------------1---------------------------------------------------------------0------------0------------|
|------------------3--2-----------------3------1----------------1------------1---------------3--1------|
|--------2----------------3----------3------------3--2----------0----------------------------------2---|
|-----0---------0---------3------3---------3---------3------3-----------0-----------0------------------|
|--0----------------------1---1----------------------0---0-----------0-----------0---------------------|
|------------------------------------------------------------------------------------------------------|


|------------------------0--------0--------1------------1---------1--------1--0---------|
|-3--------3-----1----------------1--------3-------------------------------------3--1---|
|-3------------------3---0-----0--------0--2-------------------2--------2---------------|
|----0--0----0---------------0--------0----0---------0-------0--------0-----------------|
|--------------------------------------------------0-------0--------0-------------------|
|---------------------------------------------------------------------------------------|


|--------------------0---------0--------|
|--3-----3-----1---------------1--------|
|--3--------------3--0------0-------0---|
|----0-0---0--------------0-------0-----|
|---------------------------------------|
|---------------------------------------|

[ Tab from: http://www.guitartabs.cc/tabs/a/avenged_sevenfold/warmness_on_the_soul_acoustic_tab.html ]
|--5----------5---------5---------5--3---------------------------1------------------|
|--6------6---5------5--3----3h5--------6p5----3-----3-------------3-------3/5------|
|-------5----------5----------------------------------------------------------------|
|-----------------------------------------------------------------------------------|
|-------------------------------------------------1------1--1----------1---1/3------|
|-----------------------------------------------------------------------------------|


I don't feel like tabbing the solo because 1) it's already been tabbed and 2) you can figure it out in like 5 minutes because A) it's short and 2) it's easy

Solo:

|--S-E-E---A-B-O-V-Eh5-----------------------------------------------------------------------|
|--------------------------------------------------------------------------------------------|
|--------------------------------------------------------------------------------------------|
|--------------------------------------------------------------------------------------------|
|--------------------------------------------------------------------------------------------|
|--------------------------------------------------------------------------------------------|


End of solo:
|---------1--|
|---------3--|
|---------2--|
|--3--2---0--|
|------------|
|--1--0------|


Verse 3:

|------------1--------0-------------------------------------------------------0---------0-------------|
|-------------------------3--3------------3--1--------------------------------1---------1---3--1---3--|
|--------2-------------------3---------3--------3------2----------2--------------------------------2--|
|-----0---------0-------------------3------------------3-------3--3-------0---------0-----------------|
|--0-----------------------------1-----------------0---0-----0----0-----0---------0-------------------|
|-----------------------------------------------------------------------------------------------------|



|------------1---3--1p0---------------1------0------------------0---------0------0------------1----|
|---------------------------3----------------------3---1--------1---------1----------2--2-----3----|
|--------2------------------3-------3------------------0--------------------------------------2----|
|-----0---------------------3-----3-------0-------------------0--------0----------------------0----|
|--0----------------------------1---------------------------0--------0---------0-----4--4----------|
|--------------------------------------------------------------------------------------------------|



|------------0--1--0--------------------------------------------------------0-------0--------------|
|----------------------3--3------------3--1---------------------1-----------1-------1---3--1---3---|
|--------2----------------3---------3--------3------2-----------0------------------------------2---|
|-----0--------------------------3------------------3--------3-----------0-------0-----------------|
|--0--------------------------1------------------0--0-----0-----------0-------0--------------------|
|--------------------------------------------------------------------------------------------------|



|----------1--0---------------------------------------------------0------0------------|
|----------------3p1------------3-----1-------------------1-------1------1---3--1-----|
|-------2-------------3-------3-----------3---2-----------0---------------------------|
|----0----------------3----3-------3----------3-------3--------0------0---------------|
|-0-------------------1--1--------------------0-----0--------0------0-----------------|
|-------------------------------------------------------------------------------------|


|-----------------------0---------0--------1------0--1--0-----------0--1--3--1--0------------|
|-3--------3-----1----------------1--------3---3------------3-----3------------------3--1----|
|-3------------------3--0-----0--------0---2-------------------2-----------------------------|
|----0--0----0-------------0---------0-----0-------------------------------------------------|
|--------------------------------------------------------------------------------------------|
|--------------------------------------------------------------------------------------------|



|--------------------0---------0--------|
|--3-----3-----1---------------1--------|
|--3--------------3--0------0-------0---|
|----0-0---0--------------0-------0-----|
|---------------------------------------|
|---------------------------------------|


|--5----------5----------5---------5--3---------------------------1--------------------------------|
|--6------6---5------5---3----3h5--------6p5----3-----3-------------3-------3/5--------------------|
|-------5----------5-------------------------------------------------------------------------------|
|-----------------------------------------------------------------------------------------3----2---|
|--------------------------------------------------1-----1--1-----------1---1/3--------------------|
|-----------------------------------------------------------------------------------------1----0---|


Piano solo:
|--1---------1---3---1p0-------------------------------------------------0----------------------|
|--3----------------------3---------3---------------------------------------3--1----------------|
|--2----------------------3--------------3--0--2------2--0---------0--------------0-------------|
|--0-------0--------------3------3-------------3------------3---------3--------------3--2--0----|
|---------0-------------------1-------1--------0---0------------0-----------------------------3-|
|-----------------------------------------------------------------------------------------------|


|--1-----1--0-----0----------------------------------------------0---------------------0h1--|
|--3-----------3--------1--3-----------3-----1-------------1-----1------------------1h3-----|
|--2-----------------------3--------3-----------3--2---0-2---2-----------------0h2h3--------|
|--0--0--------------0-----3-----3--------3--------3--3-------3--2--------0h2h3-------------|
|-----------------------------1--------------------0-0----0-0--------0h1h3------------------|
|-------------------------------------------------------------------3-----------------------|



|--3---5---1---0-------0---------1-1-----------------------3-----0------------5h6h8-10--|
|--3---------------3-------3-----3-3--1-------------1------1--1h3-3------5h6h8----------|
|--2---------------------------3--------3---2-------2-----------------5h7---------------|
|--0----------------------------------------3----3--3----3------------------------------|
|-------------------------------------------0--0----0--0--------------------------------|
|---------------------------------------------------------------------------------------|


|--10h13p12--10-----10----------1--0-----------5----5--3--1----1--0------1---0--------|
|----------------11-11--13--11--------3--1--3--1--1----------1----1-------------3--1--|
|-------------------------------------------3-----------------------------------------|
|-------------------------------------------------------------------------------------|
|-----------------------------------------------------------------3--3-3---3----------|
|-------------------------------------------------------------------------------------|

Last chorus:

|---------------------0--------0-------1--------1---0h1p0---0h1h3/5\3p1p0-0------|
|--3-------3----1--------------1-------3--------3--3-----3-3-------------3-3-1---|
|--3-------3-------3--0-----0-------0--2--------2---------2----------------------|
|-----0--0---0------------0-------0----0-----0--0--------------------------------|
|------------------------------------------0-------------------------------------|
|--------------------------------------------------------------------------------|



|--------------------0---------0--------|
|--3-----3-----1---------------1--------|
|--3--------------3--0------0-------0---|
|----0-0---0--------------0-------0-----|
|---------------------------------------|
|---------------------------------------|


|--5----------5----------5---------5--3---------------------------1--------------------------------1------|
|--6------6---5------5---3----3h5--------6p5----3-----3-------------3-------3/5--------------------3------|
|-------5----------5-------------------------------------------------------------------------------2------|
|-----------------------------------------------------------------------------------------3----2---0------|
|--------------------------------------------------1-----1--1-----------1---1/3---------------------------|
|-----------------------------------------------------------------------------------------1----0----------|


And that is that song.  Questions, comments, credit card numbers, corrections, send to my email.
Comments