Avenged Sevenfold - Unholy Confessions Chords & Tabs

 

Unholy Confessions Chords & Tabs

Avenged Sevenfold Chords & Tabs

Version: 6 Type: Tab 0 ratings
1 star 2 stars 3 stars 4 stars 5 stars
comments

Unholy Confessions Tab

Song: Unholy Confessions
Band: Avenged Sevenfold (A7X)
Album: Waking the Fallen
Transcribed by: Tyler Snedigar- darkrider837@aol.com
Tuning: Drop D (DADGBE)
Legend
h----hammer on
p----pull off
/----slide up
\----slide down
PM.--palm mute
+----natural harmonic
'----tremelo pick
~----vibrato
b/---bend up
b\---bend down

Intro
Super fast picking
|--------------------------------------------------------------------|
|--------------------------------------------------------------------|
|--------------------------------------------------------------------|
|-0-0----------------------------------------------------------------|
|-0-0-5-0-7-0-8-0-10-0-8-0-7h8p7---------10-0-8-0-7~-----7-0-8-0-----|
|-0-0----------------------------10~-8-8-------------7-7---------10~-|
PM. .                                . .             . .

Intro cont.
|--------------------------------------------|
|--------------------------------------------|
|--------------------------------------------|
|-0-0--------------------------------8-8-7-7-|
|-0-0-5-0-7-0-8-0-10-0-8-0-7h8p7-----8-8-7-7-|
|-0-0----------------------------10~-8-8-7-7-|
PM. .

Harmonized Part- Guitar 1                                            x3
|--------------------------------------------------------------------|
|--------------------------------------------------------------------|
|--------------------------------------------------------------------|
|-0-0----------------------------------------------------------------|
|-0-0-5-0-7-0-8-0-10-0-8-0-7h8p7---------10-0-8-0-7~-----7-0-8-0-----|
|-0-0----------------------------10~-8-8-------------7-7---------10~-|
PM. .                                . .             . .

Guitar 1 cont.
|------------------------------------|
|------------------------------------|
|------------------------------------|
|-0-0--------------------------------|
|-0-0-5-0-7-0-8-0-10-0-8-0-7h8p7-----|
|-0-0----------------------------10~-|
PM. .

Harmonized Part- Guitar 2
|--------------------------------------------------------------------|
|--------------------------------------------------------------------|
|--------------------------------------------------------------------|
|-0-0-3-0-5-0-7-0-8-0-7-0-5h7p5--------8-0-7-0-5-----5-0-7-0---------|
|-0-0---------------------------7~---------------------------7~------|
|-0-0------------------------------8-8-----------7-7-----------------|
PM. .                              . .           . .

Guitar 2 cont.
|----------------------------------|
|----------------------------------|
|----------------------------------|
|-0-0-3-0-5-0-7-0-8-0-7-0-5h7p5----|
|-0-0---------------------------7~-|
|-0-0------------------------------|
PM. .

Both Guitars
|----------|
|----------|
|----------|
|-8-8-7-7--|
|-8-8-7-7--|
|-8-8-7-7--|

Fill- Guitar 2
|-----------------|
|-8-8-10-10-6-6-4-|
|-7-7--9--9-5-5-3-|
|-----------------|
|-----------------|
|-----------------|


Verse	1										    x2
|----------------------------------------------------------------------------|
|------------------13-13\11-11\10-10/11--------------------8-8-10-10-6-6-4---|
|-7-7-7---7--------12-12\10-10\-9--9-10--------------------7-7--9--9-5-5-3---|
|-7-7-7---7-0---0-----------------------8-8-8---8-8-10-----------------------|
|-5-5-5---5-0---0-----------------------8-8-8---8-8-10-----------------------|
|-----------0---0-----------------------8-8-8---8-8-10-----------------------|
PM        . .                                   . .
'"I'll Try," she said as he walked away'

Verse 1 cont.
|----------------------------------------------------------------------------|
|----------------------------------------------------------------------------|
|----------------------------------------------------------------------------|
|-12121212-12---1212121212---1212-5-7-8888-8---10101010-10---10-10-10--------|
|-12121212-12---1212121212---1212-5-7-8888-8---10101010-10---10-10-10--------|
|-12121212-12---1212121212---1212-5-7-8888-8---10101010-10---10-10-10--------|
PM........      ..........   .... . . ....     ........      .. .. ..
'Nothing tears, the being more than deception' 

Bridge            x4
|-----------------|
|-----------------|
|-----------------|
|-0-0---0-0-0-0-0-|
|-0-0---0-0-0-0-0-|
|-0-0---0-0-0-0-0-|
PM. .   . . . . .

Verse 2                                                   x2
|---------------------------------------------------------|
|---------------------------------------------------------|
|---------------------------------------------------------|
|-0-0----------------------0-0----------------------------|
|-0-0-7-0-8-5-7-8---7-5-4~-0-0-7p0-8p0-12p0-13p0-12p0-4+--|
|-0-0----------------------0-0----------------------------|
PM. .                      . .
'Nothing hurts my world, just affects the ones around me'
[ Tab from: http://www.guitartabs.cc/tabs/a/avenged_sevenfold/unholy_confessions_tab_ver_6.html ]
Chorus
|------------------------------------------------------------------|
|------------------------------------------------------------------|
|-7-7-7---------5-5-5-5------------------------------5-5-5-5-5-5---|
|-7-7-7-0-2-3---5-5-5-5--3-2h3p2-------3-3-3---3-3-3-5-5-5-5-5-5---|
|-5-5-5-0-2-3---3-3-3-3----------5-3---3-3-3---3-3-3-3-3-3-3-3-3---|
|-------0-2-3--------------------------3-3-3---3-3-3---------------|
'I wish I could be the one, the one who won't care at all'

Chorus cont.                                                     x2
|----------------------------------------------------------------|
|----------------------------------------------------------------|
|-7-7-7---------5-5-5-5-5-5-5-5----------------------------------|
|-7-7-7-0-2-3---5-5-5-5-5-5-5-5---3-3-3----3-3-3-3---5-5-5---3---|
|-5-5-5-0-2-3---3-3-3-3-3-3-3-3---3-3-3----3-3-3-3---5-5-5---5---|
|-------0-2-3---------------------3-3-3----3-3-3-3---5-5-5---3---|
'But Being the one on the stand, I know the way to go, no one's guiding me'

Solo- Guitar 1						    x2
|--------------------------------------------------------|
|--------------------------------------------------------|
|--------------------------------------------------------|
|--------------------------------------------------------|
|-12-10-12~--8-7-8~--10-12-10~--7-5-7-4-5-8-7-5-4-8\7/8--|
|--------------------------------------------------------|

Solo- Guitar 2
Sorry. Don't know this part. Email me at Darkrider837@aol.com if you have it.


Interlude 1
|--------------------------------------------------------------------|
|--------------------------------------------------------------------|
|--------------------------------------------------------------------|
|-0-0----------------------------------------------------------------|
|-0-0-5-0-7-0-8-0-10-0-8-0-7h8p7---------10-0-8-0-7~-----7-0-8-0-----|
|-0-0----------------------------10~-8-8-------------7-7---------10~-|
PM. .                                . .             . .

Interlude 1 cont.
|--------------------------------------------|
|--------------------------------------------|
|--------------------------------------------|
|-0-0--------------------------------8-8-7-7-|
|-0-0-5-0-7-0-8-0-10-0-8-0-7h8p7-----8-8-7-7-|
|-0-0----------------------------10~-8-8-7-7-|
PM. .


Harmonized Part


Interlude
|------------------------------|
|------------------------------|
|------------------------------|
|-0-0-0-0-0-0-0-0-0------------|
|-0-0-0-0-0-0-0-0-0------------|
|-0-0-0-0-0-0-0-0-0-etc--------|
PM. . . . . . . . . ...

Then Play this \/              x2
|------------------------------|
|------------------------------|
|------------------------------|
|-0-12-11-0-10-9-8-0-7-0-7-6---|
|-0-12-11-0-10-9-8-0-7-0-7-6---|
|-0-12-11-0-10-9-8-0-7-0-7-6---|


|-----------------------|
|-----------------------|
|-----------------------|
|-0-0---0-0-0-0-0'------|
|-0-0---0-0-0-0-0'------|
|-0-0---0-0-0-0-0'------|
PM. .   . . . . .


Verse 2

Outro	Part 1						     x4
|--------------------------------------------------|
|--------------------------------------------------|
|--------------------------------------------------|
|--------------------------------------------------|
|--------------------------------------------------|
|-0-11b/12---0-10b/11---0-8b/9---0-7b/8---0-5b/6---|
Part 2
|----------------------------------------|
|----------------------------------------|
|----------------------------------------|
|----------------------------7-7\2-2-2---|
|----------------------------9-9\4-4-4---|
|-0-5b/6-0-5b/6-0-5~---0-3-0-7-7\2-2-2---|


Play the chorus and then pause. Then play the two outro parts.

If you Have any questions or comments email me at darkrider837@aol.com.

OH YEAH!  Did I forget to mention that A7X IS THE BEST BAND EVER!

Peace out and rock on \m/.

   \____________      ______________   _        _
   / __________ \/   /____________ /   \\      //
   ||          ||   //           //     \\    //
   ||          ||            ___//__     \\  //
   ||__________||           /__  __/      \\//
   | __________ |             //          //\\
   ||          ||            //          //  \\
   ||          ||           //          //    \\
   ||          ||          //          //      \\
   //          \\          -           -        -


LYRICS: "I'll try," she said as he walked away.
"Try not to lose you."
Two vibrant hearts could change.
Nothing tears the being more than deception,
unmasked fear.
"I'll be here waiting" tested and secure.

Nothing hurts my world,
just affects the ones around me
When sin's deep in my blood,
you'll be the one to fall.

"I wish I could be the one,
the one who won't care at all
But being the one on the stand,
I know the way to go, no one's guiding me.
When time soaked with blood turns its back,
I know it's hard to fall.
Confined in me was your heart
I know it's hurting you, but it's killing me."

Nothing will last in this life,
our time is spent constructing,
now you're perfecting a world... meant to sin.
Constrict your hands around me,
squeeze till I cannot breathe,
this air tastes dead inside me,
contribute to our plague.
Break all your promises,
tear down this steadfast wall,
restraints are useless here,
tasting salvation's near.
Comments