Avenged Sevenfold - Unholy Confessions Chords & Tabs

 

Unholy Confessions Chords & Tabs

Avenged Sevenfold Chords & Tabs

Version: 3 Type: Tab 0 ratings
1 star 2 stars 3 stars 4 stars 5 stars
comments

Unholy Confessions Tab

song: Unholy Confessions
band: Avenged Sevenfold
tabbed by: gumplunger


this is really just so I can see how its planned out, and edit it in with my own version
I have a feeling the verse & solo is a bit low, but the fill before the verse sounds
alot better than on the already submitted tab on UG (by Thienskater, who is an awesome tabber)


I've edited a couple of wrong bits in it, this is only for Synester Gates,
if you want Zacky Vengence' Part then just leave a comment.


Synester Gates

E||-------------------------------------|----------------------------------|
B||-------------------------------------|----------------------------------|
G||-------------------------------------|----------------------------------|
D||-------------------------------------|----------------------------------|
A||------5---7---8---10---8---7h8h7-----|------10---8---7------7---8-------|
D||--0-0---0---0---0----0---0-------10--|--8-8----8---8----7-7---7---7-10--|


                                                             
-------------------------------------|----------------------|
-------------------------------------|----------------------|
-------------------------------------|----------------------|
-------------------------------------|----------------------|
------5---7---8---10---8---7h8h7-----|--8-8-----7-7---------|
--0-0---0---0---0----0---0-------10--|--8-8-----7-7---------|


                                                                         
-------------------------------------|----------------------------------|
-------------------------------------|----------------------------------|
-------------------------------------|----------------------------------|
-------------------------------------|----------------------------------|
------5---7---8---10---8---7h8h7-----|------10---8---7------7---8-------|
--0-0---0---0---0----0---0-------10--|--8-8----8---8----7-7---7---7-10--|


                                                                         
-------------------------------------|----------------------------------|
-------------------------------------|----------------------------------|
-------------------------------------|----------------------------------|
-------------------------------------|----------------------------------|
------5---7---8---10---8---7h8h7-----|------10---8---7------7---8-------|
--0-0---0---0---0----0---0-------10--|--8-8----8---8----7-7---7---7-10--|


                                                                         
-------------------------------------|----------------------------------|
-------------------------------------|----------------------------------|
-------------------------------------|----------------------------------|
-------------------------------------|----------------------------------|
------5---7---8---10---8---7h8h7-----|------10---8---7------7---8-------|
--0-0---0---0---0----0---0-------10--|--8-8----8---8----7-7---7---7-10--|


                                                                    
-------------------------------------|-----------------------------|
-------------------------------------|-----------------------------|
-------------------------------------|-----------------------------|
-------------------------------------|---------------5-5/7-7/3-3-2-|
------5---7---8---10---8---7h8h7-----|--8-8-----7-7----------------|
--0-0---0---0---0----0---0-------10--|--8-8-----7-7----------------|


                                                                
-------------------------------|-------------------------------|
-------------------------------|-------------------------------|
-----------------5-5-3-3-2-2-3-|-------------------------------|
--7--7-7-----------------------|--3--3-3-----5---5-5/7-7/3-3-2-|
--5--5-5-5-5-0-----------------|--1--1-1-1-1-3-----------------|
-------------0-----------------|-------------------------------|


                                                                
-------------------------------|-------------------------------|
-------------------------------|-------------------------------|
-----------------5-5-3-3-2-2-3-|-------------------------------|
--7--7-7-----------------------|--3--3-3-----5---5-5/7-7/3-3-2-|
--5--5-5-5-5-0-----------------|--1--1-1-1-1-3-----------------|
-------------0-----------------|-------------------------------|


                                                                 
--------------------------------|-------------------------------|
--------------------------------|-------------------------------|
--------------------------------|-------------------------------|
----------7---------------------|----------3----------5------5--|
--5-5-5-5-5-------------------1-|--1-1-1-1-1--3-3-3-3-3--3-3-3--|
-------------0-0-0-0-0--0-3-3---|-------------------------------|


                                                                
-------------------------------|-------------------------------|
-------------------------------|-------------------------------|
-----------------5-5-3-3-2-2-3-|-------------------------------|
--7--7-7-----------------------|--3--3-3-----5---5-5/7-7/3-3-2-|
--5--5-5-5-5-0-----------------|--1--1-1-1-1-3-----------------|
-------------0-----------------|-------------------------------|


                                                        
---------------------------|---------------------------|
---------------------------|---------------------------|
---------------------------|---------------------------|
---------------------------|---------------------------|
---------------------------|---------------------------|
--0-0-----0-0-0-0-0--------|--0-0-----0-0-0-0-0--------|


                                                        
---------------------------|---------------------------|
---------------------------|---------------------------|
---------------------------|---------------------------|
---------------------------|---------------------------|
---------------------------|---------------------------|
--0-0-----0-0-0-0-0--------|--0-0-----0-0-0-0-0--------|


                                                        
---------------------------|---------------------------|
---------------------------|---------------------------|
---------------------------|---------------------------|
---------------------------|---------------------------|
---------------------------|---------------------------|
--0-0-----0-0-0-0-0--------|--0-0-----0-0-0-0-0--------|


                                                        
---------------------------|---------------------------|
---------------------------|---------------------------|
---------------------------|---------------------------|
---------------------------|---------------------------|
---------------------------|---------------------------|
--0-0-----0-0-0-0-0--------|--0-0-----0-0-0-0-0--------|


                                                       
-------------------------|----------------------------|
-------------------------|----------------------------|
-------------------------|----------------------------|
--7---7---------------5--|-------5-----3--2h3h2-0-----|
--5---5-5--0----------3--|----3--3--3--------------3--|
-----------0----2--3-----|----------------------------|


                                                                              
-------------------------|-------------------------|-------------------------|
-------------------------|-------------------------|-------------------------|
-------------------------|-------------------------|-------------------------|
----------------------3--|-------3-----3------3----|--7---7---------------5--|
--3---3----3----3--3--1--|----1--1--1--1--1-1-1----|--5---5-5--0----------3--|
--3---3-3--3----3--3-----|-------------------------|-----------0----2--3-----|


                                                                        
-------------------------|-----------------------|---------------------|
-------------------------|-----------------------|---------------------|
-------------------------|-----------------------|---------------------|
-------5-----5-----5-----|-----------------------|---------------------|
----3--3--3--3--3--3--3--|--3-------3------3--3--|--5-------5----------|
-------------------------|--3----3--3------3--3--|--5----5--0----------|


                                                       
-------------------------|----------------------------|
-------------------------|----------------------------|
-------------------------|----------------------------|
--7---7---------------5--|-------5-----3--2h3h2-0-----|
--5---5-5--0----------3--|----3--3--3--------------3--|
-----------0----2--3-----|----------------------------|


                                                                              
-------------------------|-------------------------|-------------------------|
-------------------------|-------------------------|-------------------------|
-------------------------|-------------------------|-------------------------|
----------------------3--|-------3-----3-----3-----|--7---7---------------5--|
--3---3----3----3--3--1--|----1--1--1--1--1--1--1--|--5---5-5--0----------3--|
--3---3-3--3----3--3-----|-------------------------|-----------0----2--3-----|


                                                                          
-------------------------|-----------------------|-----------------------|
-------------------------|-----------------------|-----------------------|
-------------------------|-----------------------|-----------------------|
-------5-----5-----5-----|-----------------------|-------------------7-5-|
----3--3--3--3--3--3--3--|--3-------3------3--3--|--5-------5------------|
-------------------------|--3----3--3------3--3--|--5----5--0------------|


                                                                        
------------------------|-----------------------|----------------------|
------------------------|-----------------------|----------------------|
------------------------|-----------------------|----------------------|
--7------3-2-3------5-7-|--5------2-0-2---------|----------------------|
------------------------|------------------4----|--5----8----7----5----|
------------------------|-----------------------|----------------------|


                                                                          
------------------------|------------------------|-----------------------|
------------------------|------------------------|-----------------------|
------------------------|------------------------|-----------------------|
---------3-2-3------7-5-|--7------3-2-3------5-7-|--5------2-0-2---------|
--4---------------------|------------------------|------------------4----|
------------------------|------------------------|-----------------------|


                                              
----------------------|----------------------|
----------------------|----------------------|
----------------------|----------------------|
----------------------|---------3-2-3--------|
--5----8----7----5----|--4-------------------|
----------------------|----------------------|

[ Tab from: http://www.guitartabs.cc/tabs/a/avenged_sevenfold/unholy_confessions_tab_ver_3.html ]
                                                                         
-------------------------------------|----------------------------------|
-------------------------------------|----------------------------------|
-------------------------------------|----------------------------------|
-------------------------------------|----------------------------------|
------5---7---8---10---8---7h8h7-----|------10---8---7------7---8-------|
--0-0---0---0---0----0---0-------10--|--8-8----8---8----7-7---7---7-10--|


                                                             
-------------------------------------|----------------------|
-------------------------------------|----------------------|
-------------------------------------|----------------------|
-------------------------------------|----------------------|
------5---7---8---10---8---7h8h7-----|--8-8-----7-7---------|
--0-0---0---0---0----0---0-------10--|--8-8-----7-7---------|


                                                                         
-------------------------------------|----------------------------------|
-------------------------------------|----------------------------------|
-------------------------------------|----------------------------------|
-------------------------------------|----------------------------------|
------5---7---8---10---8---7h8h7-----|------10---8---7------7---8-------|
--0-0---0---0---0----0---0-------10--|--8-8----8---8----7-7---7---7-10--|


                                                                         
-------------------------------------|----------------------------------|
-------------------------------------|----------------------------------|
-------------------------------------|----------------------------------|
-------------------------------------|----------------------------------|
------5---7---8---10---8---7h8h7-----|------10---8---7------7---8-------|
--0-0---0---0---0----0---0-------10--|--8-8----8---8----7-7---7---7-10--|


                                                                         
-------------------------------------|----------------------------------|
-------------------------------------|----------------------------------|
-------------------------------------|----------------------------------|
-------------------------------------|----------------------------------|
------5---7---8---10---8---7h8h7-----|------10---8---7------7---8-------|
--0-0---0---0---0----0---0-------10--|--8-8----8---8----7-7---7---7-10--|


                                                                         
-------------------------------------|----------------------------------|
-------------------------------------|----------------------------------|
-------------------------------------|----------------------------------|
-------------------------------------|----------------------------------|
------5---7---8---10---8---7h8h7-----|------10---8---7------7---8-------|
--0-0---0---0---0----0---0-------10--|--8-8----8---8----7-7---7---7-10--|


                                                      
--------------------------|--------------------------|
--------------------------|--------------------------|
--------------------------|--------------------------|
--------------------------|--------------------------|
--0--0--0--0--0--0--0--0--|--0--0--0--0--0--0--0--0--|
--0--0--0--0--0--0--0--0--|--0--0--0--0--0--0--0--0--|


                                                         
--------------------------|-----------------------------|
--------------------------|-----------------------------|
--------------------------|-----------------------------|
--------------------------|-----------------------------|
--0--0--0--0--0--0--0--0--|--0--12--11--0--10--9--8--0--|
--0--0--0--0--0--0--0--0--|--0--12--11--0--10--9--8--0--|


                                                         
----------------------------|---------------------------|
----------------------------|---------------------------|
----------------------------|---------------------------|
----------------------------|---------------------------|
--7--0--6--5--0--12--11--0--|--10--9--8--0--7--0--6--5--|
--7--0--6--5--0--12--11--0--|--10--9--8--0--7--0--6--5--|


                                                        
---------------------------|---------------------------|
---------------------------|---------------------------|
---------------------------|---------------------------|
---------------------------|---------------------------|
---------------------------|---------------------------|
--0-0-----0-0-0-0-0--------|--0-0-----0-0-0-0-0--------|


                                                        
---------------------------|---------------------------|
---------------------------|---------------------------|
---------------------------|---------------------------|
---------------------------|---------------------------|
---------------------------|---------------------------|
--0-0-----0-0-0-0-0--------|--0-0-----0-0-0-0-0--------|


                                                        
---------------------------|---------------------------|
---------------------------|---------------------------|
---------------------------|---------------------------|
---------------------------|---------------------------|
---------------------------|---------------------------|
--0-0-----0-0-0-0-0--------|--0-0-----0-0-0-0-0--------|


                                                        
---------------------------|---------------------------|
---------------------------|---------------------------|
---------------------------|---------------------------|
---------------------------|---------------------------|
---------------------------|---------------------------|
--0-0-----0-0-0-0-0--------|--0-0-----0-0-0-0-0--------|


                                                        
---------------------------|---------------------------|
---------------------------|---------------------------|
---------------------------|---------------------------|
---------------------------|---------------------------|
---------------------------|---------------------------|
--0-0-----0-0-0-0-0--------|--0-0-----0-0-0-0-0--------|


                                                        
---------------------------|---------------------------|
---------------------------|---------------------------|
---------------------------|---------------------------|
---------------------------|---------------------------|
---------------------------|---------------------------|
--0-0-----0-0-0-0-0--------|--0-0-----0-0-0-0-0--------|


                                                                           
------------------------|-----------------------|-------------------------|
------------------------|-----------------------|-------------------------|
------------------------|-----------------------|-------------------------|
------------------------|-----------------------|--7---7---------------5--|
------------------------|-------------7/---4----|--5---5-5--0----------3--|
--0--5b---0--5b---0--4r-|----0--3--0------------|-----------0----2--3-----|


                                                       
----------------------------|-------------------------|
----------------------------|-------------------------|
----------------------------|-------------------------|
-------5-----3--2h3h2-0-----|----------------------3--|
----3--3--3--------------3--|--3---3----3----3--3--1--|
----------------------------|--3---3-3--3----3--3-----|


                                                                              
-------------------------|-------------------------|-------------------------|
-------------------------|-------------------------|-------------------------|
-------------------------|-------------------------|-------------------------|
-------3-----3-----3-----|--7---7---------------5--|-------5-----5-----5-----|
----1--1--1--1--1--1--1--|--5---5-5--0----------3--|----3--3--3--3--3--3--3--|
-------------------------|-----------0----2--3-----|-------------------------|


                                                                        
-----------------------|---------------------|-------------------------|
-----------------------|---------------------|-------------------------|
-----------------------|---------------------|-------------------------|
-----------------------|---------------------|--7---7---------------5--|
--3-------3------3--3--|--5-------5----------|--5---5-5--0----------3--|
--3----3--3------3--3--|--5----5--0----------|-----------0----2--3-----|


                                                       
----------------------------|-------------------------|
----------------------------|-------------------------|
----------------------------|-------------------------|
-------5-----3--2h3h2-0-----|----------------------3--|
----3--3--3--------------3--|--3---3----3----3--3--1--|
----------------------------|--3---3-3--3----3--3-----|


                                                                              
-------------------------|-------------------------|-------------------------|
-------------------------|-------------------------|-------------------------|
-------------------------|-------------------------|-------------------------|
-------3-----3-----3-----|--7---7---------------5--|-------5-----5-----5-----|
----1--1--1--1--1--1--1--|--5---5-5--0----------3--|----3--3--3--3--3--3--3--|
-------------------------|-----------0----2--3-----|-------------------------|


                                                                            
-----------------------|---------------------|------------------|----------|
-----------------------|---------------------|------------------|----------|
-----------------------|---------------------|------------------|----------|
-----------------------|---------------------|------------------|----------|
--3-------3------3--3--|--5-------5----------|------------------|----------|
--3----3--3------3--3--|--5----5--0----------|------------------|----------|


                                                        

-|------------------------------|
-|------------------------------|
-|------------------------------|
-|------------------------------|
-|--0-11b-0-10b-0-9b-0-7b0-5b---|


                                                              
------------------------------|------------------------------|
------------------------------|------------------------------|
------------------------------|------------------------------|
------------------------------|------------------------------|
------------------------------|------------------------------|
--0-11b-0-10b-0-9b-0-7b0-5b---|--0-11b-0-10b-0-9b-0-7b0-5b---|


                                                              
------------------------------|------------------------------|
------------------------------|------------------------------|
------------------------------|------------------------------|
------------------------------|------------------------------|
------------------------------|------------------------------|
--0-11b-0-10b-0-9b-0-7b0-5b---|--0-11b-0-10b-0-9b-0-7b0-5b---|


                                                              
------------------------------|------------------------------|
------------------------------|------------------------------|
------------------------------|------------------------------|
------------------------------|------------------------------|
------------------------------|------------------------------|
--0-11b-0-10b-0-9b-0-7b0-5b---|--0-11b-0-10b-0-9b-0-7b0-5b---|


                                                     
------------------------------|--------------------||
------------------------------|--------------------||
------------------------------|--------------------||
------------------------------|--------------------||
------------------------------|--------------------||
--0-11b-0-10b-0-9b-0-7b0-5b---|--0-0---------------||
Comments