Avenged Sevenfold - Turn The Other Way Chords & Tabs

 

Turn The Other Way Chords & Tabs

Avenged Sevenfold Chords & Tabs

Version: 1 Type: Tab 0 ratings
1 star 2 stars 3 stars 4 stars 5 stars
comments

Turn The Other Way Tab

   
ARTIST: Avenged Sevenfold
TITLE:  Turn The Other Way
TABBER:	Luke Charman (luke@so.org)
ALBUM:  Sounding The Seventh Trumpet
GENRE:  Hardcore
YEAR:	2001
BAND:	M. Shadows (Vocals)
	Jacky Vengeance (Guitar)
	Synyster Gates (Guitar)
	Johnny Christ (Bass)
	The Reverend (Drums)

---

First of all, apologies for naming the riffs "Riff A" and so on, it would have just been
impossible for me to give each part of the song it's own name, since there are so many
different variations of the main riffs. It's just as easy to work out which parts to play
when as the song order tells you which riffs go where. It's the longest song I've tabbed
thus far, I hope I'm still doing well! I've only tabbed guitar one's parts I'm afraid, it
would have just killed me if I'd have tried to do both, I'm not up to that. He doesn't
have that involved a part in the song anyway, and it sounds GREAT on it's own, trust
me :) ENJOY!!!

---

Riff A:

e|-------------------|
B|-------------------|
G|-------------------|
D|--0---3-6--8-7--3~-|
A|--0---3-6--8-7--3~-|
D|--0---3-6--8-7--3~-|

---

Riff B:

e|----------------------------------------------------|
B|----------------------------------------------------|
G|----------------------------------------------------|
D|--000-00000-0-00000-----(5)-000-00000-0-00000--0-1--|
A|--000-00000-0-00000-(5)-----000-00000-0-00000--0-1--|
D|--000-00000-0-00000---------000-00000-0-00000--0-1--|
    ... ..... . .....         ... ..... . .....  .  

---

Riff C:

e|--------------------------------------------------------|
B|--------------------------------------------------------|
G|--------------------------------------------------------|
D|--000-00000-0-00000-----(5)-----000-00000-0-00000--0-1--|
A|--000-00000-0-00000-(5)-----(5)-000-00000-0-00000--0-1--|
D|--000-00000-0-00000-------------000-00000-0-00000--0-1--|
    ... ..... . .....             ... ..... . .....  .  

---

Riff D:

e|----------------------------------------------------------------|
B|----------------------------------------------------------------|
G|----------------------------------------------------------------|
D|--0-0---0-0-0---0---0-0-0-----(5)-0-0---0-0-0---0---0-0-0--0-1--|
A|--0-0---0-0-0---0---0-0-0-(5)-----0-0---0-0-0---0---0-0-0--0-1--|
D|--0-0---0-0-0---0---0-0-0---------0-0---0-0-0---0---0-0-0--0-1--|

---

Riff E:

e|--------------------------------------------------------------------|
B|--------------------------------------------------------------------|
G|--------------------------------------------------------------------|
D|--0-0---0-0-0---0---0-0-0-----(5)-----0-0---0-0-0---0---0-0-0--0-1--|
A|--0-0---0-0-0---0---0-0-0-(5)-----(5)-0-0---0-0-0---0---0-0-0--0-1--|
D|--0-0---0-0-0---0---0-0-0-------------0-0---0-0-0---0---0-0-0--0-1--|

---

Riff F:

e|-------------------------------|
B|-------------------------------|
G|-------------------------------|
D|-------------------------------|
A|--5-8-7----8--8-7-8-7-8/10-10--|
D|--------10-8--8-7-8-7-8/10-10--|

---

Riff G:

e|-------------------------------------|
B|-------------------------------------|
G|-------------------------------------|
D|------------------------7h8----------|
A|--5-8-7----8--8h10-8-10-----8p7-8-7--|
D|--------10-8--------------------8-7--|

---

Riff H:

e|------------------------------|
B|------------------------------|
G|------------------------------|
D|------------------------------|
A|--5-8-7----8--8h10-8-7-8-7----|
D|-------10-8---------------10--|
    .

---

Riff I:

e|------------------------------------------------|
B|------------------------------------------------|
G|-------------------------------------------7-/--|
D|--000-00000-0-00000-----000-00000-0-00000--7-/--|
A|--000-00000-0-00000-----000-00000-0-00000--5-/--|
D|--000-00000-0-00000-----000-00000-0-00000-------|
    ... ..... . .....     ... ..... . .....

---

Riff J:

e|-------------------------------|
B|-------------------------------|
G|-------------------------------|
D|--0---0---0---------------(5)--|
A|--0---0---0---5-3-0------------|
D|--0---0---0---------6-5-3------|

---

Riff K:

e|-----------------------------------------------------------|
B|-----------------------------------------------------------|
G|-----------------------------------------------------------|
D|--0--0--0--0------------------1--1--1--1--------------(5)--|
A|--0--0--0--0------------------1--1--1--1--5-3-0------------|
D|--0--0--0--0--3p0-0-5p0-0-3p0-1--1--1--1--------6-5-3------|

---

Riff L:
[ Tab from: http://www.guitartabs.cc/tabs/a/avenged_sevenfold/turn_the_other_way_tab.html ]
e|-----------------------------------------------------------|
B|-----------------------------------------------------------|
G|----------------------------------------------------5p0-6--|
D|--0-0-----------0-0---------0-0-----------0-0-0-0----------|
A|--0-0------6p5--0-0------6--0-0------6p5--0-0-0-0----------|
D|--0-0--6p5------0-0--6p5----0-0--6p5------0-0-0-0----------|

---

Riff M:

e|-------------------------------|
B|-------------------------------|
G|-------7---8--------/8---10----|
D|--0-0----7---7--0-0----8----8--|
A|--0-0-----------0-0------------|
D|--0-0-----------0-0------------|

---

Riff N:

e|------------------------------------------------------|
B|------------------------------------------------------|
G|-------10h12p10---------------------------------------|
D|--0-0-----------12-10--12h13p12p10--------------------|
A|--0-0------------------------------13-12-13p12-10-12--|
D|--0-0-------------------------------------------------|

---

Riff O:

e|------------------------------------|
B|------------------------------------|
G|-------10-12------------------------|
D|--0-0--------12--12-13-12-10----10--|
A|--0-0------------------------13-----|
D|--0-0-------------------------------|

---

Riff P:

e|---------------------------------------------------|
B|--6------8-8-10-10-11-----3------------------------|
G|--5------7-7--9--9-10-----2------------------------|
D|--3------5-5--7--7--8-----0-----1------3-----0-----|
A|--3-x12--5-5--7--7--8-x8--0-x8--1-x16--3-x8--0-x8--|
D|--3------5-5--7--7--8-----0-----1------3-----0-----|

e|-------------------------------------------------|
B|-------------------------------------------------|
G|---------------------3------------7-7---7-7-7-7--|
D|--5------3-3--1------3-x16--3-----7-7---7-7-7-7--|
A|--5-x14--3-3--1-x16--1------3-x8--5-5---5-5-5-5--|
D|--5------3-3--1-------------3--------------------|

---

Riff Q:

e|----------------------------------------|
B|----------------------------------------|
G|----------------------------------------|
D|--5-5---5-5-5-5----5-5---555-6-5-1-3-6--|
A|--5-5---5-5-5-5----5-5---555-6-5-1-3-6--|
D|--5-5---5-5-5-5----5-5---555-6-5-1-3-6--|
                             . . . . . .

---

Riff R:

e|---------------------------------------------------|
B|---------------------------------------------------|
G|----------------------------0h2-0------------------|
D|-----------------------------------3--2-3-2-0---2--|
A|----5-6-5--5-8-7-5-3-3--0-1-------------------3----|
D|--0------------------------------------------------|

---

Riff S:

e|----------------------------------------------------------|
B|----------------------------------------------------------|
G|----------------------------------------------------------|
D|-------------------5/7-5--7-8-7--8-10-8--7--5-7-5---------|
A|----5-6-5--5-8-7-5--------------------------------8-7--8--|
D|--0-------------------------------------------------------|

---

Song Order:

---

Right, this might be a bit tough to explain as there are so many riffs and a lot of them
are only a few seconds long, but, this is the order in which each riff is played with a
few of the lyrics that are sung at that point, to keep you on track):

Riff A	x1
Riff B	x1
Riff C 	x1
Riff D 	x1
Riff E	x1
Riff F	x1	(..slit my wrists..)
Riff G	x1
Riff F	x1
Riff H	x1
Riff I	x1
Riff D	x1
Riff E	x1
Riff J	x1
Riff K	x4	(..came here for something..)
Riff L	x8	Half way through these eight, (..you hold the power..)
Riff M	x1
Riff N	x1
Riff M	x1
Riff O	x1
Riff P	x1	(..i've been the wrong one time and time again..)
Riff Q	x8
Riff R	x1	After a few R's and S's, (..you've turned away from me..)
Riff S	x1

Repeat Riffs R and S whilst the song fades out.

---

Lyrics:

---

Slit my wrists, take away the pain.
Slit my throat, everyone's to blame.
Lost in the fields of confusion.
Restless nights, they're not far away.

I came here for something and I'm not turning back.
A calm piece of mind but you still hold my keys.
Keeping my fate deep within your threshold.
Petty inconvenience but it means the world to me.

You hold the power.
To set me free.
Caught in your grasp, how?
Just let me be.
Give me control out.
Out of these depths.
A fiery hell.
I pray for death.

I've been the wrong one time and time again.
Now I'm on my knees, forgive me please.

Tore out my heart and handed to me on a silver platter.
Sew up the hole, emptiness in the place of compassion.
You made me this way.
I am the product of your creation.
Look the other way.
Now you've turned your back on me.

You've turned away from me, the future's much too far away to see.
I hope you learn the truth,
Not the way things were meant to be with me and you.

---

Comments? Questions? Suggestions? luke@so.org
Comments