Avenged Sevenfold - Turn The Other Way Chords & Tabs

 

Turn The Other Way Chords & Tabs

Avenged Sevenfold Chords & Tabs

Version: 1 Type: Bass Tab 0 ratings
1 star 2 stars 3 stars 4 stars 5 stars
comments

Turn The Other Way Bass Tab

Band- Avenged Sevenfold
Song- Turn The Other Way

Intro:
G|------------------|
D|------------------|
A|------------------|
E|---3--34--5--4--3-|

G|------------------|------------------|------------------|------------------|
D|------------------|------------------|------------------|------------------|
A|------------------|------------------|------------------|------------------|
E|210-21210-0-0-210-|210-21210-0-0-210-|210-21210-0-0-210-|210-21210-0-0-210-|

G|------------------|------------------|------------------|------------------|
D|------------------|------------------|------------------|------------------|
A|------------------|------------------|------------------|------------------|
E|210-21210-0-0-210-|210-21210-0-0-210-|210-21210-0-0-210-|210-21210-0-0-210-|


Verse 1:
G|------------------|------------------|------------------|------------------|
D|------------------|------------------|------------------|------------------|
A|------------------|---------1---2-3-2|------------------|---------1---2-3-2|
E|-3-4-5-4-1---1-2-0|-3-4-5-4----------|-3-4-5-4-1---1-2-0|-3-4-5-4----------|

Interlude:
G|------------------|------------------|
D|------------------|------------------|
A|------------------|------------------|
E|210-21210-0-0-210-|210-21210-0-0-210-|

G|------------------|------------------|------------------|------------------|
D|------------------|------------------|------------------|------------------|
A|------------------|------------------|------------------|------------------|
E|210-21210-0-0-210-|210-21210-0-0-210-|210-21210-0-0-210-|210-21210-0-0-210-|

G|------------------|------------------|------------------|------------------|
D|------------------|------------------|------------------|------------------|
A|------------------|------------------|------------------|------------------|
E|210-21210-0-0-210-|210-21210-0-0-210-|210-21210-0-0-210-|210-21210-0-0-210-|

Verse 2:
G|------------------|
D|----------------7-|
A|----------543345--|
E|-0--0--0----------|

G|-------------------------------------|-------------------------------------|
D|------------------------------------7|------------------------------------7|
A|------------------------------543345-|------------------------------543345-|
E|-3-3-3-3-5--3-5--3-5--2-2-2-2--------|-3-3-3-3-5--3-5--3-5--2-2-2-2--------|

G|-------------------------------------|-------------------------------------|
D|------------------------------------7|------------------------------------7|
A|------------------------------543345-|------------------------------543345-|
E|-3-3-3-3-5--3-5--3-5--2-2-2-2--------|-3-3-3-3-5--3-5--3-5--2-2-2-2--------|

Pre Chorus:
G|-------------------------------------|-------------------------------------|
D|-------------------------------------|-------------------------------------|
A|-------------------------------------|-------------------------------------|
E|-0-0--03--0-0--345----0-0--03--0000--|-0-0--03--0-0--345----0-0--03--0000--|

G|-------------------------------------|-------------------------------------|
D|-------------------------------------|-------------------------------------|
A|-------------------------------------|-------------------------------------|
E|-0-0--03--0-0--345----0-0--03--0000--|-0-0--03--0-0--345----0-0--03--0000--|

G|-------------------------------------|-------------------------------------|
D|-------------------------------------|-------------------------------------|
A|-------------------------------------|-------------------------------------|
E|-0-0--03--0-0--345----0-0--03--0000--|-0-0--03--0-0--345----0-0--03--0000--|
[ Tab from: http://www.guitartabs.cc/tabs/a/avenged_sevenfold/turn_the_other_way_btab.html ]
G|-------------------------------------|-------------------------------------|
D|-------------------------------------|-------------------------------------|
A|-------------------------------------|-------------------------------------|
E|-0-0--03--0-0--345----0-0--03--0000--|-0-0--03--0-0--345----0-0--03--0000--|

G|-------------------------------------|-------------------------------------|
D|-------------------------------------|-------------------------------------|
A|------------------------------123212-|------------------------------123212-|
E|---00------00------00------00--------|---00------00------00------00--------|

Chorus:
G|-------------------------------------|-------------------------------------|
D|-------------------------------------|-------------------------------------|
A|-----------------------------9-999-99|------------------7--777--779--999-99|
E|--0--0--0000--0-0--7--777--77--------|5--555-555-555--55-------------------|

G|-------------------------------------|-------------------------------------|
D|-------------------------------------|-------------------------------------|
A|--------------98-----------------76--|---------------54------------------32|
E|7--777--777-77---7-5--555--555-55---5|3--333--333--33---3-1--111--111--11--|

Bridge:
G|-------------------------------------|-------------------------------------|
D|-------------------------------------|-------------------------------------|
A|-------------------------------------|-------------------------------------|
E|-10----1010-----20----20-2-1-2-3-2-3-|-10----1010------20---20--2-1-2-3-2-3|

G|-------------------------------------|-------------------------------------|
D|-------------------------------------|-------------------------------------|
A|-------------------------------------|-------------------------------------|
E|-10----1010-----20----20-2-1-2-3-2-3-|-10----1010------20---20--2-1-2-3-2-3|

G|-------------------------------------|-------------------------------------|
D|-------------------------------------|-------------------------------------|
A|-------------------------------------|-------------------------------------|
E|-10----1010-----20----20-2-1-2-3-2-3-|-10----1010------20---20--2-1-2-3-2-3|

G|-------------------------------------|-------------------------------------|
D|-------------------------------------|-------------------------------------|
A|-------------------------------------|-------------------------------------|
E|-10----1010-----20----20-2-1-2-3-2-3-|-10----1010------20---20--2-1-2-3-2-3|

Outro:
G|-------------------------------------|-------------------------------------|
D|-------------------------------------|-------------------------------------|
A|----------------------------4-444-56-|----------------------------4-444-56-|
E|-3-333-45-2-222-34-4-444-56----------|-3-333-45-2-222-34-4-444-56----------|

G|-------------------------------------|-------------------------------------|
D|-------------------------------------|-------------------------------------|
A|----------------------------4-444-56-|----------------------------4-444-56-|
E|-3-333-45-2-222-34-4-444-56----------|-3-333-45-2-222-34-4-444-56----------|

G|-------------------------------------|-------------------------------------|
D|-------------------------------------|-------------------------------------|
A|----------------------------4---5654-|----------------------------4---5654-|
E|-3---4543-2---3432-4---4564----------|-3---4543-2---3432-4---4564----------|

G|-------------------------------------|-------------------------------------|
D|-------------------------------------|-------------------------------------|
A|----------------------------4---5654-|----------------------------4---5654-|
E|-3---4543-2---3432-4---4564----------|-3---4543-2---3432-4---4564----------|


Play This Rythem Untill Faded Out
G|-------------------------------------|-------------------------------------|
D|-------------------------------------|-------------------------------------|
A|----------------------------4-444-56-|----------------------------4-444-56-|
E|-3-333-45-2-222-34-4-444-56----------|-3-333-45-2-222-34-4-444-56----------|

Comments