Avenged Sevenfold - To End The Rapture Chords & Tabs

 

To End The Rapture Chords & Tabs

Avenged Sevenfold Chords & Tabs

Version: 1 Type: Bass Tab 0 ratings
1 star 2 stars 3 stars 4 stars 5 stars
comments

To End The Rapture Bass Tab

Drop D tuning

G----------------------------------------------------|
D----------------------------------------------------|
A----------------------------------------------------|
D-0----0-0-2-3-----3-3-3-3-10--(10)-8-----8--8--10---|

G----------------------------------------------------|
D----------------------------------------------------|
A----------------------------------------------------|
D-0----0-0-2-3-----3-3-3-3-10---10---10---8-----10---|

G-----------------------------------------------------|
D-----------------------------------------------------|
A-------------------------------8-10-8-7-5------------|
D-0----0-0-2-3-----3-3-3-3-10--------------8-----10---|

G----------------------------------------------------|
D----------------------------------------------------|
A----------------------------------------------------|
D-0----0-0-2-3-----3-3-3-3-10---10---10---8-----10---|
[ Tab from: http://www.guitartabs.cc/tabs/a/avenged_sevenfold/to_end_the_rapture_btab.html ]
G------------------------------------------------------------------|
D-------------------------------/8-10---8--------------------------|
A-------------------------------------------10---------------------|
D-0----0-0-2-3-----3-3-3-3-10------------------10-8-----8--8--10---|

G----------------------------------------------------|
D----------------------------------------------------|
A----------------------------------------------------|
D-0----0-0-2-3-----3-3-3-3-10---10---10---8-----10---|

G----------------------------------------------------|
D----------------------------------------------------|
A----------------------------------------------------|
D-0----0-0-2-3-----3-3-3-3-10---10---10---8-----10---|

G----------------------------------------------------|
D----------------------------------------------------|
A----------------------------------------------------|
D-0----0-0-2-3-----3-3-3-3-10---10---10---8-----10---|

G-----
D-----
A-----
D-0---
Comments