Avenged Sevenfold - Thick And Thin Chords & Tabs

 

Thick And Thin Chords & Tabs

Avenged Sevenfold Chords & Tabs

Version: 1 Type: Bass Tab 0 ratings
1 star 2 stars 3 stars 4 stars 5 stars
comments

Thick And Thin Bass Tab

   
Band- Avenged Sevenfold
Song- Thick And Thin

Intro
G|-------------------------------------------------|
D|-------------------------------------------------|
A|-------------------------------------------------|
D|-0~--------0~--------0~--------0~--------1-0-3-5-|

G|-------------------------------------|
D|-------------------------------------|
A|----------------35-55555555-5353-----|
D|-00000000-000057----------------7530-|

Verse
G|-------------------------------------------------------------------------|
D|-------------------------------------------------------------------------|
A|-------------------------------------33333333-33777888-------------------|
D|-00000000-00000000-33333333-33333333-------------------88888888-7777-3-2-|

G|----------------------------------------------------------------------------|
D|----------------------------------------------------------------------------|
A|-------------------------------------33333333-33777888----------------------|
D|-00000000-00000000-33333333-33333333-------------------88888888-7-5-3-5-3-2-|
[ Tab from: http://www.guitartabs.cc/tabs/a/avenged_sevenfold/thick_and_thin_btab.html ]
Pre-Chorus
G|----------------------------------------|
D|----------------------------------------|
A|----------------------------3-1-0-1-0---| x4
D|-10-10xxxx10-10xxxx10-10xxxx----------3-|

Chorus
G|------------------------------|
D|------------------------------|
A|--------3-5-3h5---------------| x4
D|-00-000--------33-333-5-3-2h3-|

Post-Chorus x2
G|---------------------------------|
D|---------------------------------|
A|---------------------------------|
D|-0-3-2-0-3-0-6-7-5-8-7-5-3-2-3-0-|

Chorus      x4
Post-Chorus x2

Bridge
G|---------------------------|
D|---------------------------|
A|-10-10-10-10---------------| x2
D|-------------10-3-5-10-3-5-|

G|-------------------|
D|-------------------|
A|-------------------|
D|-3~--0-2-3-5~--6~--|

G|-------------------------|
D|-------------------------|
A|-------------------------| x4
D|-000-000-3-5-000-000-653-|

G|-------------------|
D|-------------------|
A|-------------------|
D|-3~--0-2-3-5~--6~--|

G|-------------------------|
D|-------------------------|
A|-------------------------| x4
D|-000-000-3-5-000-000-653-|

G|-------------------|
D|-------------------|
A|-------------------|
D|-3~--0-2-3-5~--6~--|

G|------------------------------|
D|------------------------------|
A|-5------------5---------------|
D|-----1-0-3-5~-----7-5-3-5-3-2-|

Verse
Pre-Chorus x4

End on
G|-----|
D|-----|
A|-----|
D|-0~--|
Comments