Avenged Sevenfold - The Art Of Subconscious Illusion Chords & Tabs

 

The Art Of Subconscious Illusion Chords & Tabs

Avenged Sevenfold Chords & Tabs

Version: 2 Type: Tab 0 ratings
1 star 2 stars 3 stars 4 stars 5 stars
comments

The Art Of Subconscious Illusion Tab

   
Artist: Avenged Sevenfold
Song: The Art Of Subconscious Illusion
Album: Sounding the Seventh Trumpet

. - Palm Mute
> - Strum
* - Harmonc
H - Hammer On
P - Pull Off
/ - Slide Up
~ - Let Ring
-------------------------

Guitar 1:						     2x
|-------------------------------------------------------------| 
|-------------------------------------------------------------| 
|-5-5-5-5-5-5-5-6-6-6-6-6-6-6---------------------------------| 
|-5-3-3-5-5-5-5-6-6-6-6-6-6-6---------------------------------| 
|-3-3-3-3-3-3-3-4-4-4-4-4-4-4---------------------------------| 
|-------------------------------------------------------------|
    . .   . .     . .   . . 

Guitar 2: Pick Slide				
	
Both Guitars		   
|-------------------------------------------------------------| 
|-------------------------------------------------------------| 
|-5>----8>-----------5>---------------------------------------| 
|-5>-6>-8>-8>-10/6---5>-6>--2-2-2-2-2-2-2-2-2-2---------------| 
|-3>-6>-6>-8>--8/4---3>-6>--2-2-2-2-2-2-2-2-2-2---------------| 
|----6>----8>-----------6>--2-2-2-2-2-2-2-2-2-2---------------| 
                            . . . . . . . . . . 

|--------------------------------|------------------------------| 
|--------------------------------|------------------------------| After 2x w/ Palm Mute
|--------------------------------|------------------------------| Do 2x w/out
|---------------------------3-2--|------------------------------| 
|-5-4-5-7-5-4-2-4-5-4-5-7-5------|---5-4-5-7-5-4-2-4-5-4-5--1-3-| 
|-5-4-5-7-5-4-2-4-5-4-5-7-5------|---5-4-5-7-5-4-2-4-5-4-5--1-3-| 
  . . . . . . . . . . . . .          . . . . . . . . . . .

							
|-----------------------------------------------------| 
|-----------------------------------------------------| 
|----------5*-----------------------------------------| 
|-0-1-3-0------1-3-0~---1-3-0~---1-3------------------| 
|-0-1-3-0------1-3-0~---1-3-0~---1-3------------------| 
|-0-1-3-0------1-3-0~---1-3-0~---1-3------------------| 

				     4x
|-------------------------------------|
|-------------------------------------|
|-------------------------------------|
|--0-0-0-0-0-0-0-0-1-1-1-1-3-3-3-3----|
|--0-0-0-0-0-0-0-0-1-1-1-1-3-3-3-3----|
|--0-0-0-0-0-0-0-0-1-1-1-1-3-3-3-3----|
PM . . . . . . . . . . . . . . . .

Guitar 1:					        6x
|---------------------5----------------------------------| 
|---5-5-5-6-5-5-5h6h8---5-5-5-6--------------------------| 
|---5-5-5---5-5---------5-5-5---0-3-2-0---0--------------| 
|---------------------------------------4----2p0---------| 
|--------------------------------------------------------| 
|--------------------------------------------------------| 
      .       .           .     . . . . . .

Guitar 2:
|-----------------------------------------------|
|-----------------------------------------------|
|-------------------------------0-3-2-0---0-----|
|-0---------0-----------0---------------4---2P0-|
|-0---------0-----------0-----------------------|
|-0---------0-----------0-----------------------|
                                . . . . . . 
[ Tab from: http://www.guitartabs.cc/tabs/a/avenged_sevenfold/the_art_of_subconscious_illusion_tab_ver_2.html ]
|-----------------------------------------------|
|-----------------------------------------------|
|-------------------------------0-3-2-0---0-----|
|-0---------0--0--0-0-0-----------------4---2P0-|
|-0---------0--0--0-0-0-------------------------|
|-0---------0--0--0-0-0-------------------------|
                                . . . . . .
			     4x
|-----------------------------|
|-----------------------------|
|-----------------------------|
|-0-0-1-0-0-3-0-0-1--0-3-5-7--|
|-0-0-1-0-0-3-0-0-1--0-3-5-7--|
|-0-0-1-0-0-3-0-0-1--0-3-5-7--|
		     . . . .

Guitar 1:	 12x
|------------------|
|------------------|
|--0-3-2-0---0-----|
|----------4---2P0-|
|------------------|
|------------------|
   . . . . . .

Guitar 2:
|---------------------------| 
|---------------------------| 
|---------------------------| 
|--0-----3-----5-----7------| 
|--0-----3-----5-----7------| 
|--0-----3-----5-----7------| 
 
		  4x
|------------------|
|------------------|
|------------------|
|-0-3-5-7-0-3-5-7--|
|-0-3-5-7-0-3-5-7--|
|-0-3-5-7-0-3-5-7--|

Both Guitars
|-----------------------| 
|-----------------------| 
|----------5*-----------| 
|-0-1-3-0------1-3------| 
|-0-1-3-0------1-3------| 
|-0-1-3-0------1-3------| 

				     2x
|-------------------------------------|
|-------------------------------------|
|-------------------------------------|
|--0-0-0-0-0-0-0-0-1-1-1-1-3-3-3-3----|
|--0-0-0-0-0-0-0-0-1-1-1-1-3-3-3-3----|
|--0-0-0-0-0-0-0-0-1-1-1-1-3-3-3-3----|
PM . . . . . . . . . . . . . . . .
						             4x
|-------------------------------------------------------------| 
|-------------------------------------------------------------| 
|-------------------------------------------------------------| 
|-0-0-0-------0-0-0-----5-0-0-0-------1-3---------------------| 
|-0-0-0-5h7-0-0-0-0-5h7---0-0-0-5h7-0-1-3---------------------| 
|-0-0-0-------0-0-0-------0-0-0-------1-3---------------------| 
    . .         . .         . .  
					4x
|-----------|----------------------------|
|-----------|----------------------------|
|-----------|----------------------------|
|-12~---6~--|-5-4-5-7-5-4-2-4-5-4-5-7-5--|
|-12~---6~--|-5-4-5-7-5-4-2-4-5-4-5-7-5--|
|-12~---6~--|-5-4-5-7-5-4-2-4-5-4-5-7-5--|
	      . . . . . . . . . . . . . 
		       			   2x
|-------------------------------------------|
|-------------------------------------------|
|-------------------------------------------|
|-12~---6~--5--5-5-5-5-5-5-5-5-5-5-5-5-5-5--|
|-12~---6~--5--5-5-5-5-5-5-5-5-5-5-5-5-5-5--|
|-12~---6~--5--5-5-5-5-5-5-5-5-5-5-5-5-5-5--|
               . . . . . . . .

Pick Slide Back & Forth

|----------------------------|
|----------------------------|
|----------------------------|
|-5-5-5-5-5-5-5-5-5-5-5-5-5--|
|-5-5-5-5-5-5-5-5-5-5-5-5-5--|
|-5-5-5-5-5-5-5-5-5-5-5-5-5--|
  . . . . . . . . . . . . .

		       			   3x
|-------------------------------------------|
|-------------------------------------------|
|-------------------------------------------|
|-12~---6~--5--5-5-5-5-5-5-5-5-5-5-5-5-5-5--|
|-12~---6~--5--5-5-5-5-5-5-5-5-5-5-5-5-5-5--|
|-12~---6~--5--5-5-5-5-5-5-5-5-5-5-5-5-5-5--|
               . . . . . . . .
G. 1		       G. 2
|---------------------|---------------|
|---------------------|---------------|
|---------------------|---------------|
|-12~---6~--5---------|-12~---6~---0--|
|-12~---6~--5H6P5H6P5-|-12~---6~---0--|
|-12~---6~--5---------|-12~---6~---0--|
Comments