Avenged Sevenfold - The Art Of Subconscious Illusion Chords & Tabs

 

The Art Of Subconscious Illusion Chords & Tabs

Avenged Sevenfold Chords & Tabs

Version: 1 Type: Bass Tab 0 ratings
1 star 2 stars 3 stars 4 stars 5 stars
comments

The Art Of Subconscious Illusion Bass Tab

   
Band- Avenged Sevenfold
Song- The Art Of Subconscious Illusion

~=let ring

G|----------------------------------------------------------|
D|---------66-6-66---------88-8-88---------66-6-66----------|
A|-33-3-33---------66-6-66---------33-3-33------------------|
D|-------------------------------------------------55555555-|

G|------------------------------------|
D|------------------------------------|
A|---------------43-------------------| x4
D|-53565303-53565---53565303-11113333-|

G|----------------------|
D|----------------------|
A|--------------5-------|
D|-0~--1-3~--0~---1-3~--|

G|------------------|
D|------------------|
A|------------------| x5
D|-0000000011113333-|

G|---------------|
D|---------------|
A|---------------|
D|-0000000011113-|

G|---------------------------------|
D|---------------------------------|
A|---------------------------------|
D|-0--0--0--0-0-0-0-0--0--0-00-0-0-|

G|-----------------------|
D|-----------------------|
A|-----------3-----------| x4
D|-00001-0000--0000-0357-|

G|------------|
D|------------|
A|------------|
D|-0--0--0--0-|

G|---------|
D|---------|
A|---------|
D|-0-3-5-7-|
Play this a bunch
[ Tab from: http://www.guitartabs.cc/tabs/a/avenged_sevenfold/the_art_of_subconscious_illusion_btab.html ]
G|----------------------|
D|----------------------|
A|--------------5-------|
D|-0~--1-3~--0~---1-3~--|

G|------------------|
D|------------------|
A|------------------| x2
D|-0000000011113333-|

G|---------------------------|
D|---------------------------|
A|----35-----356----35-------| x4
D|-0----3-0------0----3-0011-|

G|-----------------------------------------------|
D|-----------------------------------------------|
A|-----------------------------------------------|
D|-0~---6~---53565303-53565303-53565303-53565303-|

G|-------------------------------------|
D|-------------------------------------|
A|-------------------------------------|
D|-00000000-66666666-55555555-55555555-|

G|------------------------------------|
D|------------------------------------|
A|----------------------------565310--|
D|-00000000-66666666-55555555-------0-|

G|-------------------------------------|
D|-------------------------------------|
A|--------------6----------------------|
D|-0-----00-6--6-653-55555555-5353-1-0-|

G|------------------------------------|
D|------------------------------------|
A|-------------6----------------------| x6
D|-0-----00-6-6-653-55555555-55555555-|
He variates each bar so mess around

G|---------------------|
D|---------------------|
A|-------------6-------|
D|-0-----00-6-6-653-5~-|
Comments