Avenged Sevenfold - Strength Of The World Chords & Tabs

 

Strength Of The World Chords & Tabs

Avenged Sevenfold Chords & Tabs

Version: 2 Type: Tab 0 ratings
1 star 2 stars 3 stars 4 stars 5 stars
comments

Strength Of The World Tab

   
-------------------------------------------------------------------------------
			     Strength Of The World Intro - Avenged Sevenfold
-------------------------------------------------------------------------------
Tabbed by: Derek Yakimchuk with help from BlindLuckMusic89
Email: Acidpickle@hotmail.com

Tuning: D,A,D,G,B,E


Guitar 1 & 2 (Synyster Gates & Zacky Vengeance)

Begins at 1:24

Guitar 1 (Syn)
|-----------------------------------|
|-----------------------------------|
|-----------------------------------|
|--0-0--7----5-----------------5~---| x4
|--0-0----8----7--0-7-8-7-5----5~---|
|--0-0-------------------------5~---|
   . .

Guitar 2 (Zacky)
|-----------------------------------|
|-----------------------------------|
|-----------------------------------|
|--0-0~--------------------------5~-| x2
|--0-0~--------------------------5~-|
|--0-0~--------------------------5~-|
[ Tab from: http://www.guitartabs.cc/tabs/a/avenged_sevenfold/strength_of_the_world_tab_ver_2.html ]
|------------------------------------|
|------------------------------------|
|------------------------------------|
|--0000000000000000-5555555555555555-| x2
|--0000000000000000-5555555555555555-|
|--0000000000000000-5555555555555555-|
   ................ ................

Guitar 1 (Syn)
|-------------------------------------------------------------|
|-------------------------------------------------------------|
|-------------------------------------------------------------|
|--0-0--7----5------------------------------------------------|
|--0-0----8----7--0-7-8-7-5-0----------5-----7-----8-7-5------|
|--0-0---------------------------5-7-8---8-7---8-7------------|
   . . 

Guitar 1 & 2 (Both)
|-------------------------------------------------------------|
|-------------------------------------------------------------|
|-------------------------------------------------------------| Repeat all
|--0-00000000-1-0-1-0-1---------------------------------------| 4 times
|--0-00000000-1-0-1-0-1---------------------------------------|
|--0-00000000-1-0-1-0-1---------------------------------------|
     ........
Comments