Avenged Sevenfold - Streets Chords & Tabs

 

Streets Chords & Tabs

Avenged Sevenfold Chords & Tabs

Version: 2 Type: Bass Tab 0 ratings
1 star 2 stars 3 stars 4 stars 5 stars
comments

Streets Bass Tab

   
STREETS (Bassline)
As recorded by Avenged Sevenfold
(From the 2002 Album SOUNDING THE SEVENTH TRUMPET)


Gtr I (E A D G)

   Intro
    Q=128
   4/4
    Gtr I
||------------------|-----------------|-----------------|------------------||
||o-----------------|---3-3-3-3-3-3-3-|-3---------------|---2-2-2-2-2-2-2-o||
||o-0-0-0-0-0-0-0-0-|-0---------------|---3-3-3-3-3-3-3-|-3---------------o||
||------------------|-----------------|-----------------|------------------||


 Pre-Verse
|---------------------|---------------------|---------------------|
|---------------------|-3-3-3-3-3-3-3-3-3-3-|---------------------|
|-0-0-0-0-0-0-0-0-0-0-|---------------------|-3-3-3-3-3-3-3-3-3-3-|
|---------------------|---------------------|---------------------|


|---------------------|---------------------|---------------------|
|-2-2-2-2-2-2-2-2-2-2-|---------------------|-3-3-3-3-3-3-3-3-3-3-|
|---------------------|-0-0-0-0-0-0-0-0-0-0-|---------------------|
|---------------------|---------------------|---------------------|


                                              Q=106
|---------------------|---------------------|---------|-----|
|---------------------|-2-2-2-2-2-2-2-2-2-2-|---------|-----|
|-3-3-3-3-3-3-3-3-3-3-|---------------------|---------|-----|
|---------------------|---------------------|---------|-----|


   Verse
                                                                        4x
||----------------------------------|-----------------------------------||
||o-----------------3-3-3-3-3-3-3-3-|-----------------2-2-2-2-2-2-2-2--o||
||o-0-0-0-0-0-0-0-0-----------------|-3-3-3-3-3-3-3-3------------------o||
||----------------------------------|-----------------------------------||


||----------------------------------|----------------------------------|
||o-3-3-3-3-3-3-3-3-----------------|----------------------------------|
||o-----------------3-3-3-3-3-3-3-3-|-5-5-5-5-5-5-5-5------------------|
||----------------------------------|-----------------5-5-5-5-5-5-5-5--|


|---------------------------------|-----------------------||
|-3-3-3-3-3-3-3-3-----------------|-2-2-2-2-2-2-2-2-2----o||
|-----------------3-3-3-3-3-3-3-3-|----------------------o||
|---------------------------------|-----------------------||


   Verse
    Q=103
                                                                   4x
||------------------------------|----------------------------------||
||o-----------------------------|---------------------------------o||
||o-0-0-0-0-0-0-0-0-0-0-0-0-2-3-|---------------------------------o||
||------------------------------|-1-1-1-1-1-1-1-1-3-3-3-3-3-3-3-3--||


                                Q=106
|-----------------------------|----------------------------------|
|-----------------------------|----------------------------------|
|-0-0-0-0-0-0-0-0-0-0-0-0-2-3-|----------------------------------|
|-----------------------------|-1-1-1-1-1-1-1-1-3-3-3-3-3-3-3-3--|


 Bridge
|---------------------------------|---------------------------------|
|---------------------------------|---------------------------------|
|-0-0-0-0-0-0-0-0-----------------|-3-3-3-3-3-3-3-3-----------------|
|-----------------1-1-1-1-1-1-1-1-|-----------------3-3-3-3-3-3-3-3-|


   Verse
                                                                        4x
||----------------------------------|-----------------------------------||
||o-----------------3-3-3-3-3-3-3-3-|-----------------2-2-2-2-2-2-2-2--o||
||o-0-0-0-0-0-0-0-0-----------------|-3-3-3-3-3-3-3-3------------------o||
||----------------------------------|-----------------------------------||

[ Tab from: http://www.guitartabs.cc/tabs/a/avenged_sevenfold/streets_btab_ver_2.html ]
 Bridge
|---------------------------------|---------------------------------|
|-3-3-3-3-3-3-3-3-----------------|---------------------------------|
|-----------------3-3-3-3-3-3-3-3-|-5-5-5-5-5-5-5-5-----------------|
|---------------------------------|-----------------5-5-5-5-5-5-5-5-|


|---------------------------------|----------------------|
|-3-3-3-3-3-3-3-3-----------------|-2-2-2-2-2-2-2-2-2----|
|-----------------3-3-3-3-3-3-3-3-|----------------------|
|---------------------------------|----------------------|


|---------------------------------|---------------------------------|
|-3-3-3-3-3-3-3-3-----------------|---------------------------------|
|-----------------3-3-3-3-3-3-3-3-|-5-5-5-5-5-5-5-5-----------------|
|---------------------------------|-----------------5-5-5-5-5-5-5-5-|


 Breakdown
                                                           Q=99
|---------------------------------|----------------------|------|
|-3-3-3-3-3-3-3-3-----------------|-2-2-2-2-2-2-2-2-2----|------|
|-----------------3-3-3-3-3-3-3-3-|----------------------|-0----|
|---------------------------------|----------------------|------|


|------------|----------|------------|-----------------------------|
|------------|----------|------------|-----------------------------|
|-(0)--------|-0--------|-(0)--------|-0-0-0-0-0-0-0-0-0-0-0-0-2-3-|
|------------|----------|------------|-----------------------------|


|---------------------------------|------------------------------|
|---------------------------------|------------------------------|
|---------------------------------|-0-0-0-0-0-0-0-0-0-0-0-0-2-3--|
|-1-1-1-1-1-1-1-1-3-3-3-3-3-3-3-3-|------------------------------|


 Verse
                                    Q=102
|---------------------------------|------------------------------|
|---------------------------------|------------------------------|
|---------------------------------|-0-0-0-0-0-0-0-0-0-0-0-0-2-3--|
|-1-1-1-1-1-1-1-1-3-3-3-3-3-3-3-3-|------------------------------|


|---------------------------------|------------------------------|
|---------------------------------|------------------------------|
|---------------------------------|-0-0-0-0-0-0-0-0-0-0-0-0-2-3--|
|-1-1-1-1-1-1-1-1-3-3-3-3-3-3-3-3-|------------------------------|


   Outro
||----------------------------------|
||o---------------------------------|
||o---------------------------------|
||--1-1-1-1-1-1-1-1-3-3-3-3-3-3-3-3-|


|------------------------------||-----------------------------------|
|-----------------------------o||-----------------------------------|
|-0-0-0-0-0-0-0-0-0-0-0-0-2-3-o||-----------------------------------|
|------------------------------||-1-1-1-1-1-1-1-1-3-3-3-3-3-3-3-3---|


|----------|------------|--------*|
|----------|------------|--------*|
|-0--------|-(0)--------|-(0)----*|
|----------|------------|--------*|



Tablature Legend
----------------
 h   - hammer-on
 p   - pull-off
 b   - bend
 pb  - pre-bend
 r   - bend release (if no number after the r, then release immediately)
 /\  - slide into or out of (from/to "nowhere")
 s   - legato slide
 S   - shift slide
 - natural harmonic
[n]  - artificial harmonic
n(n) - tapped harmonic
 ~   - vibrato
 tr  - trill
 T   - tap
 TP  - trem. picking
 PM  - palm muting
\n/  - tremolo bar dip; n = amount to dip
 \n  - tremolo bar down
 n/  - tremolo bar up
/n\  - tremolo bar inverted dip
 =   - hold bend; also acts as connecting device for hammers/pulls
 <> - volume swell (louder/softer)
 x   - on rhythm slash represents muted slash
 o   - on rhythm slash represents single note slash

Misc Legend
-----------
 |  - bar
||  - double bar
||o - repeat start
o|| - repeat end
*|  - double bar (ending)
 :  - bar (freetime)
 $  - Segno
 &  - Coda
Tempo markers -  = BPM(8/16=s8/s16), where s8 = swing 8ths, s16 = swing 16ths
Comments