Avenged Sevenfold - Sidewinder Chords & Tabs

 

Sidewinder Chords & Tabs

Avenged Sevenfold Chords & Tabs

Version: 5 Type: Tab 0 ratings
1 star 2 stars 3 stars 4 stars 5 stars
comments

Sidewinder Tab

Intro Solo
Guitar 1
e|------------------------------------------------------------------------------------------------------------------------|
B|------------------------------------------------------------------------------------------------------------------------|
G|-/17--15---19-17-15-14---12-14-15-14-12-14----------------14---12---------/17-15---19-17-15-14---12-14-15-14-12-14------|
D|-------------------------------------------14---15--12-15---------15-14---------------------------------------------14--|
A|------------------------------------------------------------------------------------------------------------------------|
D|------------------------------------------------------------------------------------------------------------------------|
Guitar 2
e|------------------------------------------------------------------------------------------------------------------------|
B|-/17--15---18-17-15-13--11-13-15-13-11-13----------------13---11---------/17--15----18-17-15-13--11-13-15-13-11-13------|
G|------------------------------------------12---14--10-14---------14-12----------------------------------------------12--|
D|------------------------------------------------------------------------------------------------------------------------|
A|------------------------------------------------------------------------------------------------------------------------|
D|------------------------------------------------------------------------------------------------------------------------|

Intro
Guitar 1
e|---------------------------------------------------------------------|
B----------------------------------------------------------------------|
G|---------------------------------------------------------------------|
D|---0--00-0---0000---0000--0-0-0-0-----0--00-0---0000---0000--0-0-0-0-|
A|---0--00-0---0000---0000--0-0-0-0-----0--00-0---0000---0000--0-0-0-0-|
D|---0--00-0---0000---0000--0-0-0-0-----0--00-0---0000---0000--0-0-0-0-|
[ Tab from: http://www.guitartabs.cc/tabs/a/avenged_sevenfold/sidewinder_tab_ver_5.html ]
e|------------------------------------------------------------------------------------------------------------------------------|
B-------------------------------------------------------------------------------------------------------------------------------|
G|---11----/14------7---7--7----/15-15-15---15-15--15-/18-----------------11----/14------7---7--7----/15-15-15---15-15--15-/18--|
D|---x------xx------x---x--x-----xx-xx-xx---xx-xx--xx--xx-----------------x------xx------x---x--x-----xx-xx-xx---xx-xx--xx--xx--|
A|---9-----/12------5---5--5----/13-13-13---13-13--13-/16-----------------9-----/12------5---5--5----/13-13-13---13-13--13-/16--|
D|------------------------------------------------------------------------------------------------------------------------------|

Pre-Verse thing
Guitar 1
e|-------------14-14---------17-17---------20-20---------20b(21)--18p17p15--|
B---------------------15-15---------18-18---------19-19---------------------|
G|--------------------------------------------------------------------------|
D|--------------------------------------------------------------------------|
A|--------------------------------------------------------------------------|
D|--------------------------------------------------------------------------|
Guitar 2
e|--------------------------------------------17-17----------19b(20)-18p17p15--|
B-------------15-15---------18-18--------------------18-18---------------------|
G|--------------------14-14---------18-18--------------------------------------|
D|-----------------------------------------------------------------------------|
A|-----------------------------------------------------------------------------|
D|-----------------------------------------------------------------------------|

Verse
Both Guitars
e|-------------------------------------------------------------------------|
B--------------------------------------------------------------------------|
G|-------------------------------------------------------------------------|
D|--0-7---0-5-------0-3-2-0-5-3-2-0-------0-7---0-5-------0-3-2-0-/8-7-----|
A|------8-----7-0-3---------------------------8-----7-0-3--------------7---|
D|-------------------------------------------------------------------------|

The chorus is the same thing as the intro solo.
Sorry i couldnt get more, but at least its something.
ThePoint570@aol.com
for questions or comments.
Comments