Avenged Sevenfold - Sidewinder Chords & Tabs

 

Sidewinder Chords & Tabs

Avenged Sevenfold Chords & Tabs

Version: 1 Type: Tab 0 ratings
1 star 2 stars 3 stars 4 stars 5 stars
comments

Sidewinder Tab

Drop D tuning               A7X FOR LIFE!!!

Guitar One

-------------------------------------------------------------|
------------------------11/13-11-13/15-13-11-10-8-10-11-10---|
----10-7-10/14-12-10-9---------------------------------------|
-------------------------------------------------------------|
-------------------------------------------------------------|
-------------------------------------------------------------|

-------------------------------------------------------------|
-------------------------------------------------------------|
--8-10-------------------------------------------------------|
-------9-----------------------------------------------------|
-------------------------------------------------------------|
-------------------------------------------------------------|
Guitar Two
-------------------------10/12-10-12/13-12-10-8-6-8-10-8-----|
--10---10--13/14-11-10-8-------------------------------------|
-----9-------------------------------------------------------|
-------------------------------------------------------------|
-------------------------------------------------------------|
-------------------------------------------------------------|
[ Tab from: http://www.guitartabs.cc/tabs/a/avenged_sevenfold/sidewinder_tab.html ]
--6-8--------------------------------------------------------|
------8------------------------------------------------------|
-------------------------------------------------------------|
-------------------------------------------------------------|
-------------------------------------------------------------|
-------------------------------------------------------------|
Both Guitars
-------------------------------------------------------------|
-------------------------------------------------------------|
-------------------------------------------------------------|
--0----0------------------0----0-----------------------------|
--0----0------------------0----0-----------------------------|
--0-00-0-0000-0000-0-0-00-0-00-0-0000-0000-0-0-00------------|
   [pm]  [][] [][] [][][]   []   [][] [][] [][][]   [] = palm mutes

--------------------------------------------------------------|
--------------------------------------------------------------|
--11/14-7/-9/15/18--------------------------------------------|
--------------------------------------------------------------|
--------------------------------------------------------------|
--------------------------------------------------------------|
Comments