Avenged Sevenfold - Sidewinder Chords & Tabs

 

Sidewinder Chords & Tabs

Avenged Sevenfold Chords & Tabs

Version: 1 Type: Bass Tab 0 ratings
1 star 2 stars 3 stars 4 stars 5 stars
comments

Sidewinder Bass Tab

Band- Avenged Sevenfold
Song- Sidewinder

intro
G|-------------------------/---|
D|------------------------/----|
A|-----------------------/-----|
D|-0~000-0000-000-00-00-/x4--0-|

verse
G|--------------------|--------------------|
D|-------------3/5325-|-------------7/8757-|
A|-55555555555--------|-55555555555--------|
D|--------------------|--------------------| x2
[ Tab from: http://www.guitartabs.cc/tabs/a/avenged_sevenfold/sidewinder_btab.html ]
chorus
G|---------|------------|
D|---------|------------|
A|---------|-1~/5~------|
D|-0~-3~2~-|-------3~2~-| x2

play intro x4

G|-------------|
D|-----3-------|
A|-5-3---0-1-0-|
D|-------------|

play verse x2

play chorus x2


outro
acustic part
G|---------------------|
D|---------------------|
A|-5~5~-3~3~-1~1~-1133-|
D|---------------------| repeat for a while
Comments