Avenged Sevenfold - Seize The Day Chords & Tabs

 

Seize The Day Chords & Tabs

Avenged Sevenfold Chords & Tabs

Version: 2 Type: Tab

Seize The Day Tab

Legend: h - Hammer on
p - Pulloff
~ - Bend < The number in parenthesis is the fret it should sound like while bending >
v - Vibrato
! - Triplet
\ - Slide down

E|-12h13p12--16-----------13(14)--14-14h16-13v-----13-14-14v------------------------||
B|---------13--13-------------------------------16-----------16p14h16-----14h16v----||
G|----------------13-16-15----------------------------------------------16----------||
D|----------------------------------------------------------------------------------||
A|----------------------------------------------------------------------------------||
E|----------------------------------------------------------------------------------||


[ Tab from: http://www.guitartabs.cc/tabs/a/avenged_sevenfold/seize_the_day_tab_ver_2.html ]
E|------------14----19-18-19-18v-20~(21)-18-18!-16-16v---14-16-18v----------------------||
B|-------16-----16--------------------------------------------------16--19p18p16----16--||
G|-15-16---16--------------------------------------------------------------------18-----||
D|--------------------------------------------------------------------------------------||
A|--------------------------------------------------------------------------------------||
E|--------------------------------------------------------------------------------------||



E|-----------------------------------------------------------------||
B|-16----------------------------------------------------16--------||
G|---15-------15------------------------------------16-----16-15h16||
D|------18p16----18p16---16v------13-16--16v---16-----16-----------||
A|---------------------18-------16---------------16----------------||
E|-----------------------------------------------------------------||


E|-18~(19)-18v---17~(18)-17~(18)16p14h16-----13-14----14--------------------||
B|-----------------------------------------16------------16----16---12-14-16||
G|----------------------------------------------------------15--------------||
D|--------------------------------------------------------------------------||
A|--------------------------------------------------------------------------||
E|--------------------------------------------------------------------------||




E|----------------------------------15*Squeal*||
B|16\14-14\12-12-11-12-11-12-11---------------||
G|------------------------------11------------||
D|--------------------------------------------||
A|--------------------------------------------||
E|--------------------------------------------||