Avenged Sevenfold - Seize The Day Chords & Tabs

 

Seize The Day Chords & Tabs

Avenged Sevenfold Chords & Tabs

Version: 1 Type: Bass Tab 0 ratings
1 star 2 stars 3 stars 4 stars 5 stars
comments

Seize The Day Bass Tab

   
Band- Avenged Sevenfold
Song- Seize The Day

Intro
G|----------------------------------------------|
D|----------------------------------------------|
A|-------------------3-3-333-33-----------------|
D|-33-4-5-5-5-555-55------------3-3-2-2-0-0-0-0-|

G|-------------------------------|
D|-------------------------------|
A|------------3-3-333-33---------|
D|-5-5-555-55------------3-3-2-2-|

Verse
G|-----------------|
D|-----------------|
A|-----------------|
D|-0-0-5-5-3-3-2-2-| x4

Pre-Chorus
G|-------------------------------------------------|
D|-------------------------------------------------|
A|-------------------3-3-333-33-----------------1~-|
D|-33-4-5-5-5-555-55------------3-3-2-2-0-0-0-0----|

Chorus
G|------------------------------------|
D|------------------------------------|
A|----------------3333-1111-33333-----|
D|-0000-3333-5555----------------0000-|

**Play Verse** x4
**Play Pre-Chorus**
[ Tab from: http://www.guitartabs.cc/tabs/a/avenged_sevenfold/seize_the_day_btab.html ]
Chorus 2
G|-------------------------------------|
D|-------------------------------------|
A|----------------3333-1111-33333------|
D|-0000-3333-5555----------------0000--|

G|--------------------------------|
D|--------------------------------|
A|----------------3333-1111-33333-|
D|-0000-3333-5555-----------------|

Guitar Solo
G|------------------------|
D|------------------------|
A|-------3333-55555-11111-|
D|-33333------------------| x3

Verse 2
G|--------------------------------|
D|--------------------------------|
A|---------333333-5555555-1111111-|
D|-3333333------------------------|

G|--------------------|
D|--------------------|
A|-------3333-1~--1/8-|
D|-33333--------------|

**Play Chorus** x2

Outro
G|--------------------------------------|
D|--------------------------------------|
A|-------------------00000000-111111111-|
D|-55555555-33333333--------------------| x4  (this is when the guitars use palm mute)

G|---------------------|
D|---------------------|
A|-----------0000-1111-|
D|-5555-3333-----------| x3

G|-------------------|
D|-------------------|
A|-----------0000-1~-|
D|-5555-3333---------|
Comments