Avenged Sevenfold - Second Heartbeat Chords & Tabs

 

Second Heartbeat Chords & Tabs

Avenged Sevenfold Chords & Tabs

Version: 3 Type: Tab 0 ratings
1 star 2 stars 3 stars 4 stars 5 stars
comments

Second Heartbeat Tab

   
AVENGED SEVENFOLD-SECOND HEARTBEAT (SOLO)
Tabbed by Ben H (PunkAsPhuck)

|--------------------\10-----------------13-13\15-13--------|
|\13--------------------11--------13-16---------------------|
|----12-----------13------10--15----------------------------|
|-------13-12-13--------------------------------------------|
|-----------------------------------------------------------|
|-----------------------------------------------------------|

|----------h------------h-----------------------------------|
|-16-13-13-15-13-11-11-13-----------------------------------|
|------------------------------ 12------h--p----------------|
|----------------------------- 12-13-12----h--p-------------|
|--------------------------------------- 13-15-13-----------|
|-----------------------------------------------------------|

|----------------------- \10-----------------h--h-----|
|\13----------------------- 11------h--h--13-15-16----|
|---12--------------- 12-----10-12-13-15--------------|
|-----13-12-13-12-13----------------------------------|
|-----------------------------------------------------|
|-----------------------------------------------------|
h b 1/2
|-13-15-13-------15\18-16-15----------p---------------|
|-----------16-13-------------16-13-15-13-15----------|
|-----------------------------------------------------|
|-----------------------------------------------------|
|-----------------------------------------------------|
|-----------------------------------------------------|
b T
|------h--p--h--p----------p-p---------------------|
|----13-15-16-15-13-20-16-15-13--------------------|
|-15-----------------------------------------------|
|--------------------------------------------------|
|--------------------------------------------------|
|--------------------------------------------------|
p arpeggio thing B
|-15-11----------------------------h---h--p--p------------|
|-------13---------------h---p---13-15-16-15-13--16-------|
|----------12----------12-15-13---------------------------|
|-------------13----13------------------------------------|
|----------------15---------------------------------------|
|---------------------------------------------------------|

|-----------------------------------------------------------|
|-------------------------------h--h---------------h--h-----|
|-------------h--h-----h--h---8-10-12---h--h---10-12-13-----|
|---h---h--10-12-13--8-10-12---------10-12-13---------------|
|-10-11-13--------------------------------------------------|
|-----------------------------------------------------------|
[ Tab from: http://www.guitartabs.cc/tabs/a/avenged_sevenfold/second_heartbeat_tab_ver_3.html ]
|---------------------------------------------------------|
|--------------h--h--p--p----------h-h---p--p-------------|
|---h--h----12-13-15-13-12-----10-12-13-12-10-------------|
|-12-13-15------------------13----------------------------|
|---------------------------------------------------------|
|---------------------------------------------------------|
p p
|-18-16-15---p--p-----p--p-----------------------------------|
|----------18-16-15-16-15-13---p--p-----p--p-----------------|
|-----------------------------17-15-13-15-13-12--------------|
|------------------------------------------------------------|
|------------------------------------------------------------|
|------------------------------------------------------------|

|--------------------------------------------------------|
|--------------------------------------------------------|
|---p---p-----p--p---------------------------------------|
|-17-15-13-15-13-12----p--p------p--p--h---h-------------|
|---------------------17-15-13--15-13-11-13-15-----------|
|--------------------------------------------------------|
b1/2
|-----------------------------------------------------|
|--------------15-------------------------------------|
|-------15-12-----------------------------------------|
|----12-----------------------------------------------|
|-15--------------------------------------------------|
|-----------------------------------------------------|
h p h p
|-------15-20-15-20-15--------------------------| x4
|----16-----------------------------------------|
|-17--------------------------------------------|
|-----------------------------------------------|
|-----------------------------------------------|
|-----------------------------------------------|

|-22-22-22-18--22-22-22-18---------------------|
|----------------------------------------------|
|----------------------------------------------| x8
|----------------------------------------------|
|----------------------------------------------|
|----------------------------------------------|

|-22----------------------------------------------------|
|--------------------------h--h-----h---h-----h--h------|
|-------h---h-----h--h--12-13-15-13-15-17-15-17-19------|
|-----10-12-13-12-13-15---------------------------------|
|-------------------------------------------------------|
|-------------------------------------------------------|

|---h---p--------15-20-15-------------------------------|
|-15-16-15---16----------16---13-15-16-15-16-18---------|
|----------17--------------- 17-------------------------|
|-------------------------------------------------------|
|-------------------------------------------------------|
|-------------------------------------------------------|

|-15-16-18\20------------------------------------|
|------------------------------------------------|
|------------------------------------------------|
|------------------------------------------------|
|------------------------------------------------|
|------------------------------------------------|
Comments