Avenged Sevenfold - Remenissions Chords & Tabs

 

Remenissions Chords & Tabs

Avenged Sevenfold Chords & Tabs

Version: 1 Type: Bass Tab 0 ratings
1 star 2 stars 3 stars 4 stars 5 stars
comments

Remenissions Bass Tab

   
Band- Avenged Sevenfold
Song- Remenisions

ntro						      2x
G|-------------|----------------------------------------|
D|-------------|----------------------------------------|
A|-------------|-55555555----------11111111-------------|
D|--0----00000-|----------33333333----------33333-77777-|

|-----------------------------|
|-----------------------------|
|-----5~-----6~---------------|
|-00-0---00-0---00-0-8~-7~--7-|
pm..     ..     ..
Verse									2x
G|-----------------------------------------------------------------------|
D|-----------------------------------------------5-3-2-0-2---------------|
A|------------------------------------------3-33-----------3-------------|
D|-0-00-3p2p0-000-3p2p0-0-8-888-12-8-888-12------------------8--5--10--7-|

|---------------|
|---------------|
|---------------|Verse 2x
|-0---0---0---0-|
  .   .   .   .

Break
G|------------------|------------------------|------------------|
D|------------------|------------------------|------------------|
A|------------------|------------------------|------------------|
D|-1-2-00-0-000-000-|-1-2-00-0-000-000-0-000-|-1-2-00-0-000-000-|
            ... ...            ... ...   ...            ... ...
|-------------------------------|
|-------------------------------|
|---------------------10979-757-|x2
|-0~---8~---5~---10~------------|

Acoustic				     2x 
G|---------------------------------------------|
D|---------------------------------------------|
A|---------------------------------------------|
D|-00-00-3-4-5555-7-8-10101010-12-10-3333-7777-|

Palm Mute
G|-----------------------------------------------------|-----------
D|-----------------------------------------------------|-----------
A|-----------------------------------------------------|-----------
D|-0-0000000-5-5555555-10-10101010101010-3-3333-7-7777-|-0-0000000-

G|--------------------------------------|
D|--------------------------------------|
A|--------------------------------------|
D|-5-5555555-10-10101010101010-8~-8/10~-|
[ Tab from: http://www.guitartabs.cc/tabs/a/avenged_sevenfold/remenissions_btab.html ]
Bridge
G|---------------------------------|-----------------------|
D|---------------------------------|-----------------------|
A|-55-xx-55-xx-55-xx-55-xx---------|-55787-5---------------|
D|-------------------------88-1010-|---------78~-10~-33-22-|

|-------------------------|-----------------------|--------------------------|
|-------------------------|-----------------------|--------------------------|
|-55787-5---------888-----|-55787-5---------------|55787-5-------------------|
|---------78~-10~-----333-|---------78~-10~-33-22-|--------78~-10-10-7-10-12-|

G|----------------------------------------------------------------------------
D|----------------------------------------------------------------------------
A|-7777-3333-5555-1111-3333-3333-3333-1111-1111-1111-1111-7777-3333-5555-1111-
D|----------------------------------------------------------------------------

|------------------------------------|-----------------------------------------|
|-------------------------------8888-|-----------------------------------------|
|-3333-3333-3333-1111-1111-1111------|-3333-3333-1111-1111---------------------|
|------------------------------------|---------------------5555-5555-5555-5555-|
		      6x	   4x
G|----------------------|------------|
D|----5-----------5-----|------------|
A|------7-6---------7-6-|------------|
D|-0~-------00-0~-------|-0--1--2--3-|

Breakdown								   2x
G|---------------------------------------------------------------------------|
D|---------------------------------------------------------------------------|
A|---------------------------------------------------------------------------|
D|-00-00-000-00000-88--88-888-88888-1010--1010-101010-1010101010-33333-22222-|

Chorus					4x
G|-----------------------------------------|--------------------|
D|-----------------------------------------|--------------------|
A|-----------------------------------------|--------------------|
D|-0000-34-5555-78-10101010-1210-3333-7777-|-3333333-5555555-0~-|

Ending		?x
G|----------------|
D|----------------|
A|----------------|
D|-00000000000000-|
Comments