Avenged Sevenfold - Radiant Eclipse Chords & Tabs

 

Radiant Eclipse Chords & Tabs

Avenged Sevenfold Chords & Tabs

Version: 4 Type: Tab

Radiant Eclipse Tab

/ = SLIDE

E--------------------------------|
B--8------8-----8-7------7-------|
G----5--5---5-------5--5--5--5---|
D -----5------5-------5-----5----|
A--------------------------------|
D--------------------------------|
                                                             X10
[ Tab from: http://www.guitartabs.cc/tabs/a/avenged_sevenfold/radiant_eclipse_tab_ver_4.html ]
E---------------------------------------------------------------------|
B---------------------------------------------------------------------|
G---------------------------------------------------------------------|
D-/5---3/5-6/5-3-3/5---3/5-6/5-0-0-1-1---3/5-6/5-3-3/5----3/5-6/5-0---|
A---------------------------------------------------------------------|
D---------------------------------------------------------------------|


E-------------------|
B-------------------|
G-------------------|
D-------------------|
A-1-0000-0000-------|
D-1-0000-0000-------|

I'M WORKIN' ON THE REST. HOPEFULLY I'LL POST IT SOON :o)