Avenged Sevenfold - Radiant Eclipse Chords & Tabs

 

Radiant Eclipse Chords & Tabs

Avenged Sevenfold Chords & Tabs

Version: 3 Type: Tab 0 ratings
1 star 2 stars 3 stars 4 stars 5 stars
comments

Radiant Eclipse Tab

   
----------------------------------------------------------------------------
			     Radiant Eclipse - Avenged Sevenfold
----------------------------------------------------------------------------
Tabbed by:my friend chris actually tabbed this, i asked him to real quick cause
the outro solo was missing from the tab already here. So if ya have questionsemail
me at~~.....bender1985@yahoo.com

Tuning:C# actually but it sounds fine in drop D if ya don't want to hassle
[ Tab from: http://www.guitartabs.cc/tabs/a/avenged_sevenfold/radiant_eclipse_tab_ver_3.html ]
Outro solo  
e|--4-4------9--------2-4-4/-6-4--4-2-0-2--------------4--2/4-------------| 
B|--4b4b-4h6-9-7----7-------------------2-----2--------4b-----4~----------| 
G|-------------7/-9-------6/---5----------4br-2----2h4--------------------| 
D|----------------------------------------------4~------------------------| 
A|------------------------------------------------------------------------| 
E|------------------------------------------------------------------------| 
  
| b  bend string
| /  slide up
| \  slide down
| h  hammer-on
| p  pull-off
| ~  vibrato
| +  harmonic
| x  Mute note
============================================================================
Comments