Avenged Sevenfold - Missing In Action Chords & Tabs

 

Missing In Action Chords & Tabs

Avenged Sevenfold Chords & Tabs

Version: 3 Type: Tab 0 ratings
1 star 2 stars 3 stars 4 stars 5 stars
comments

Missing In Action Tab

   
                                     M.I.A.
                        As recorded by Avenged Sevenfold
                       (From the 2005 Album CITY OF EVIL)

Words and Music by Avenged Sevenfold
Arranged by Avenged Sevenfold
Transcribed by Alex Pantek

Gtr I (D A D G B E) - 'Guitar 1'
Gtr II (D A D G B E) - 'Guitar 2'
[ Tab from: http://www.guitartabs.cc/tabs/a/avenged_sevenfold/missing_in_action_tab_ver_3.html ]
    134 Q=134
    Dm                        Bb
   4/4
    Gtr I
    Q   Q   Q   Q     Q   Q   Q   Q     Q   Q   Q   Q
||-------------10--|-----------------|-----------------|
||o----10----------|-10--------------|-----------------|
||---------10------|-----10\-----10--|-----12--14--10--|
||--0--------------|-----------------|-12--------------|
||o----------------|-----------------|-----------------|
||-----------------|----------8------|-----------------|
|
|   Gtr II
|   Q   Q   Q   Q     Q   Q   Q   Q     Q   Q   Q   Q
||-----------------|-----------------|-----------------|
||o------------10--|-----------------|-----------------|
||-----10----------|-10--------------|-----------------|
||---------12------|-----12\-----12--|-----14--15--12--|
||o-8--------------|----------5------|-13--------------|
||-----------------|-----------------|-----------------|


  C                    C           F
   Q  Q   Q   Q    Q    Q  Q  Q    Q   Q  Q  Q     4x
|----------------|---------------|-----------------||
|-----8------10--|-8\------------|----------------o||
|---------9------|------9--7--5--|-----9--6--------||
|----------------|---------------|-7---------5-----||
|----------------|---------------|----------------o||
|-10-------------|---------------|-----------------||
|
|  Q  Q   Q   Q    Q    Q  Q  Q    Q   Q  Q  Q     4x
|----------------|---------------|-----------------||
|----------------|---------------|----------------o||
|-----9------10--|-9\------------|-----------------||
|--------10------|-----10--8--7--|----10--7--------||
|--7-------------|---------------|-8---------7----o||
|----------------|---------------|-----------------||
Comments