Avenged Sevenfold - Missing In Action Chords & Tabs

 

Missing In Action Chords & Tabs

Avenged Sevenfold Chords & Tabs

Version: 2 Type: Tab 0 ratings
1 star 2 stars 3 stars 4 stars 5 stars
comments

Missing In Action Tab

Band .:::Avenged Sevenfold:::.

Song-Missing In Action[outro]


e--6-5-3-------3s5s3---------------------|
b--------6-5-6-------6-----6--6-8--5h6p5-|
g----------------------7-7---------------|
D----------------------------------------|
A----------------------------------------|
D----------------------------------------|


e---------------------------------------|
b---------------------------------------|
g--5s7-5------------------------------7-|
D--------8-7h8p7-5-3-5-7-8-7-5-7-8-7----|
A---------------------------------------|
D---------------------------------------|

[ Tab from: http://www.guitartabs.cc/tabs/a/avenged_sevenfold/missing_in_action_tab_ver_2.html ]
e----------------------------------------|
b----------------------------------------|
g-7s9--10----7----9--10--10s12--9--9--10-|
D---------8------------------------------|
A----------------------------------------|
D----------------------------------------|


e--------------------------------------------------|
b--------------------------------------------------|
g--12s15--14-14------------------------------------|
D---------------17--15--17s19-17-15h17---15--10h12-|
A--------------------------------------------------|
D--------------------------------------------------|

im not sure if its right, its only the second tab ive done so please bare wit me
havent yet figured out the crazy part right near the end but ill get there.
send any hate mail to dk1d69@hotmail.com

A7X 4 LIFE...............
Comments