Avenged Sevenfold - Missing In Action Chords & Tabs

 

Missing In Action Chords & Tabs

Avenged Sevenfold Chords & Tabs

Version: 1 Type: Bass Tab

Missing In Action Bass Tab

hey this is my first tabon this site ^ ^ amazing huh!
                                                      o
well to play this song you have to have a fell for it.  Tuning D,A,D,G
also anything in ( ) means play as many times as needed. I did this for
all the A7X fans like me get tired of waiting for an mia tab for bass.

 Pre-verse
|-------------------------------------------------------------------------|
|-------------------------------------------------------------------------|
|-5-5-7-8-1-1-1--3-5-3-(3)-3-4-5-5-5-7-8-1-1-1-3-5-1-3--------(1-1-1-1----|
|-------------------------------------------------------3-3-3-3-----------|

Verse
|-------------------------------------------5-5--------|
|------------8-8-7-5-0--0-3-5--------3-3-2-----3-2-3---|
|----------------------1---------3-3-------------------|
|-0-0----0-0-------------------------------------------|

Pre-chorus
|----------------------------------------------------------------------------|
|----------------------------------------------------------------------------|
|-------------------1-1-1-1-1----------------0-0-0-0-0-1-1-1-1-1-------------|
|---(0-0-0)---(0-0-0)----------3-3-3-3-3-3-3-3-------------------------------|

Chorus
|------------------------------------------------------------------------------------|
|------------------------------------------------------------------------------------|
|-5-5-5-5-5-1-1-1-1-1-1-1-1-3-3-3-3-3---------------------------0-0-0-0-1-1-1-1-1----|
|--------------------------------------3-3-3-3-3-3-3-3-5-5-5-5-5---------------------|

|------------------------------------|
|------------------------------------|
|-3-3-3-3-3-3-3-3-3-3-3-3-3-3--3-3---|
|------------------------------------|

Breakdown
|----------------------------|
|----------------------------|
|-0--1--1-1--3--3----0-0-0---|
|------------------3---------|
[ Tab from: http://www.guitartabs.cc/tabs/a/avenged_sevenfold/missing_in_action_btab.html ]
Interlude
|------------------------------------------------------------------------------------|
|------------------------------------------------------------------------------------|
|------------------------------------------------------------------------------------|
|-12-0-0-0-0-12-0-0-0-0-12-0-0-0-0-12-0-0-0-0-12-0-0-0-0-0-0-0-0-0-0-0-0-0-0-2-3-----|

|---------------------------------|
|---------------------------------|
|---------------------------------|
|-8-8-8-8-8-8-8-8-8-8-8-8-8-8-8---|

Guitar Break
|----------------------------------|
|----------------------------------|
|-----------------------(-4-4-4----|
|-(0-0-0)-(2-2-2)-(3-3-3)----------|

Guitar Solo (there is no bass until it sounds like 2 guitars are playing)
|------------------------------------------------------------------------------------|
|------------------------------------------------------------------------------------|
|-0-0--4-4-4--7-7-7-4-4-4-4-(5-5-5-5)-(1-1-1-1)-(-3-3-3-3)-0-0-4-4-4-7-7-7-4-4-4-4---|
|------------------------------------------------------------------------------------|

Breakdown 2
|--------------------------------------------------------------------------|
|--------------------------------------------------------------------------|
|----------------1-1-1-1-1-1-1--3-3-3-3-3-3-3------------------------------|
|-0-0-0-0-0-0-0-------------------------------3-3-3-3-3-3-3--5-5-5-5-5-5---|

|------------------------------------------------------------------------------------|
|------------------------------------------------------------------------------------|
|-0-0-0-1-1-1-1--3-3-3-3-3-3-3-3-3-3-3-3-4-4-4-4-4-4---------------1-1-1-1-1-1-1-----|
|------------------------------------------------------0-0-0-0-0-0-0-----------------|

|---------------------------------------------------------------|
|---------------------------------------------------------------|
|-3-3-3-3-3-3-3--------------------------------0-0-0-1-1-1-1----|
|-----------------3-3-3-3-3-3-3--5-5-5-5-5-5-5------------------|

Pre- verse 2x
verse 2x
Pre-chorus 2x
Chorus 2x
Pre-verse 2x
Pre-chorus 2x
Chorus 2x
Breakdown 2x
Interlude 2x
Guitar Break
Guitar solo 3x
Breakdown 2
Interlude 2x
end no bass

Please rate!!!!!!