Avenged Sevenfold - Lips Of Deceit Chords & Tabs

 

Lips Of Deceit Chords & Tabs

Avenged Sevenfold Chords & Tabs

Version: 1 Type: Bass Tab 0 ratings
1 star 2 stars 3 stars 4 stars 5 stars
comments

Lips Of Deceit Bass Tab

Band- Avenged Sevenfold
Song- Lips Of Deceit

+Intro pt.1+ (start after 1st drum beat)
G|-------------------------------------------------------------------------------|
D|-------------------------------------------------------------------------------|
A|--0-3/1~-----8~--8-73-5~---7-8-7-1~-1-0----------3~--3-0000000000000000000~-|
D|-------------------------------------------6-5-3~------------------------------|

+Intro pt.2+
G|----------------------------------------|
D|----------------------------------------|
A|--555555-00-111111-0-88888888-77-357873-|
D|----------------------------------------|

G|-------------------------------------------------------------|
D|-------------------------------------------------------------|
A|--555555-00-111111-0------------3333-0000000000000000000000~-|
D|---------------------5-33333333------------------------------|

Guitar solo (till 1.19)

+Verse 1+ (fast)
G|-------------------------------------------------------------|
D|-------------------------------------------------------------|
A|--0000003311111100---33000000--------33555555887788101012~--| x3
D|------------------55555------53000000-----------------------|
(2nd and 3rd time in different rhythm)
[ Tab from: http://www.guitartabs.cc/tabs/a/avenged_sevenfold/lips_of_deceit_btab.html ]
+... Then+
G|-------------------------------|
D|-------------------------------|
A|--12-10-8-10-8-7-5-7-8-7-5-3-5-|
D|-------------------------------|

+Verse 2 pt.1+ (fast)			   +Verse 2 pt.2+
G|----------------------------------||---------------------------------------------|
D|----------------------------------||--------------------------------------232----|
A|--555555778888880011111111----4444||--5555557788888888101010101010---3333-----3--| x4
D|--------------------------3333----||---------------------------------------------|

+Interlude+
G|--------------------------    |---------------------|
D|--------------------------    |---------------------|
A|-------3-1----1-3----3-5- x4 |---------------------|
D|--0-----------------------    |--0----guitar-----0~-|

G|-------------|
D|-------------|
A|---1^-3^-5---| x4
D|0^-----------|

G|-----------------------------------------------|
D|-----------------------------------------------|
A|--5--5--5-5-333-5-5-5-5-333- x2 ---5-6-5---|
D|-----------------------------------------------|

G|-----------------------------| |-------------------------|
D|-----------------------------| |-------------------------|
A|--5-5----------- x4 5-5-6-5-| |--5-5-------5------------| x3
D|------6-5-03530--------------| |--------6--(^ 0r...)--0--|

+End+ (fast)
G|---------------|
D|---------------|
A|--0^-1^--------| x3
D|0^-----333222--|

(Last one)
G|---------------|
D|---------------|
A|--0^-1^--------|
D|0^-----3332220-|
Comments