Avenged Sevenfold - I Wont See You Tonight Chords & Tabs

 

I Wont See You Tonight Chords & Tabs

Avenged Sevenfold Chords & Tabs

Version: 1 Type: Tab 3 ratings
1 star 2 stars 3 stars 4 stars 5 stars
comments

I Wont See You Tonight Tab

Band:Avenged Sevenfold *A7X*
Album:Waking the Fallen
tabbed by:Tripp Taylor

this is an amazing song, and an amazing album. If their is somebody
out their that doesn't have this album then i would recomend you get
this album cause A7X puts their heart and soul into it.


Intro:
Guitar One:
e----------------------------------------------------------------|
B----------------------------------------------------------------|
G-12~-----------------------------14b15r14b15r14b15r14-9b10~-----|
D----------------------------------------------------------------|
A----------------------------------------------------------------|
D----------------------------------------------------------------|

e---------------------------------------------------------------------|
B---------------------------------------------------------------------|
G--14b15r14b15r14b15---9b10~-------10b12-------5v--------------/7-5h7-|
D---------------------------------------------------------------------|
A---------------------------------------------------------------------|
D---------------------------------------------------------------------|

e------------------------------------------------------------------------|
B------------------------------------------------------------------------|
G--3~-------------------------3-5-10~---------15-14-14b15r14b15r14-12-10-|
D------------------------------------------------------------------------|
A------------------------------------------------------------------------|
D------------------------------------------------------------------------|

e--------------------------------------------------------------------------|
B--------------------------------------------------------------------------|
G-10b12~----------------12-14-15-17~-----------------------17p15--15p14-14-|
D--------------------------------------------------------------------------|
A--------------------------------------------------------------------------|
D--------------------------------------------------------------------------|

e-----------------------------------------------------------------------|
B-----------------------------------------------------------------------|
G-14b15r14b15r14-8-8b10~----------10b12-------12b13-------12b15--r12~---|
D-----------------------------------------------------------------------|
A-----------------------------------------------------------------------|
D-----------------------------------------------------------------------|

Guitar Two:
e--------------------------------------------------------------------|
B--------------------------------------------------------------------|
G--------------------------------------------------------------------|
D-5-5-5-5-5-5-5-5-5-5-5-5-5-5-5-5-1-1-1-1-1-1-1-1-1-1-1-1-1-1-1-1----|
A-5-5-5-5-5-5-5-5-5-5-5-5-5-5-5-5-1-1-1-1-1-1-1-1-1-1-1-1-1-1-1-1----|
D-5-5-5-5-5-5-5-5-5-5-5-5-5-5-5-5-1-1-1-1-1-1-1-1-1-1-1-1-1-1-1-1----|

e-----------------------------------------------------------------------|
B-----------------------------------------------------------------------|
G-----------------------------------------------------------------------|
D-3-3-3-3-3-3-3-3-3-3-3-3-3-3-3-3-0-0-0-0-0-0-0-0-0-0-0-0-0-0-0-0-------|
A-3-3-3-3-3-3-3-3-3-3-3-3-3-3-3-3-0-0-0-0-0-0-0-0-0-0-0-0-0-0-0-0-------|
D-3-3-3-3-3-3-3-3-3-3-3-3-3-3-3-3-0-0-0-0-0-0-0-0-0-0-0-0-0-0-0-0-------|

e---------------------------------------------------------------------|
B---------------------------------------------------------------------|
G---------------------------------3-3-3-3-3-3-3-3---------------------|
D-1-1-1-1-1-1-1-1-1-1-1-1-1-1-1-1-3-3-3-3-3-3-3-3-3-3-3-3-3-3-3-3-----|
A-1-1-1-1-1-1-1-1-1-1-1-1-1-1-1-1-1-1-1-1-1-1-1-1-3-3-3-3-3-3-3-3-----|
D-1-1-1-1-1-1-1-1-1-1-1-1-1-1-1-1-----------------3-3-3-3-3-3-3-3-----|

e-------------------------------------------------------------------|
B-------------------------------------------------------------------|
G-------------------------------------------------------------------|
D-5-5-5-5-5-5-5-5-5-5-5-5-5-5-5-5-1-1-1-1-1-1-1-1-1-1-1-1-1-1-1-1---|
A-5-5-5-5-5-5-5-5-5-5-5-5-5-5-5-5-1-1-1-1-1-1-1-1-1-1-1-1-1-1-1-1---|
D-5-5-5-5-5-5-5-5-5-5-5-5-5-5-5-5-1-1-1-1-1-1-1-1-1-1-1-1-1-1-1-1---|

e----------------------------------------------------------------------|
B----------------------------------------------------------------------|
G----------------------------------------------------------------------|
D-3-3-3-3-3-3-3-3-3-3-3-3-3-3-3-3-0-0-0-0-0-0-0-0-0-1-1-1-1-3-3-3-5~---|
A-3-3-3-3-3-3-3-3-3-3-3-3-3-3-3-3-0-0-0-0-0-0-0-0-0-1-1-1-1-3-3-3-5~---|
D-3-3-3-3-3-3-3-3-3-3-3-3-3-3-3-3-0-0-0-0-0-0-0-0-0-1-1-1-1-3-3-3-5~---|

Guitar One (Slightly Distorted):
e--------------------------------------------/18--17--15--------15p11-----|
B-----------------------------------------------15--15--15-18p15-----11v--|
G--10-12-14-15-14-15-14-12-14-15-14v--------------------------------------|
D-------------------------------------------------------------------------|
A-------------------------------------------------------------------------|
D-------------------------------------------------------------------------|

e--/15--17--18--17--15--14v-----/14--------------------------------|
B-----11--11------11---------------11-15p11-13p11-15p11------------|
G-------------------------------------------------------14-12v-----|
D------------------------------------------------------------------|
A------------------------------------------------------------------|
D------------------------------------------------------------------|

Guitar Two (Clean):
e--------------------------------------------------------------------|
B-11------10------8------10------11------10------8-----8---8-10-8----|
G---12------10------8------10------12------10------8-----8-----------|
D-----12------10------8------10------12------10------8---------------|
A--------------------------------------------------------------------|
D--------------------------------------------------------------------|

e--------------------------------------------------------------------------|
B---4-------10------8-------10-----------------7-------11------10-------11-|
G-----5-------10------8-------10--------7--------7-------11------10----12--|
D-------6-------10------8-------10--------8--------8-------13------10-12---|
A-------------------------------------0-----10-----------------------------|
D--------------------------------------------------------------------------|


Verse 1:
e-------------------------------------------------------------------|
B-11------10------8-------10------/11----------------------10-------|
G---12------10------8-------10-------10------10------12--12--12-----|
D-----12------10------8-------10-------10------10--10---------------|
A------------------------------------------------10-----------------|
D-------------------------------------------------------------------|

e------------------------------------------------------------------------|
B--11------10------8-------10-------10-----7-------8-------13------------|
G----12--p0--10------8-------10-------7------7-------8---------10--------|
D------12------10------8-------10-------8------5-------8-----12----------|
A------------------------------------------------------------------------|
D------------------------------------------------------------------------|

Chorus 1:
e---------------------------------------------------------------------|
B---------------------------------------------------------------------|
D-5-5-5-5-5-5-5-5-5-5-5-5-5-5-5-5-1-1-1-1-1-1-1-1-1-1-1-1-1-1-1-1-----|
A-5-5-5-5-5-5-5-5-5-5-5-5-5-5-5-5-1-1-1-1-1-1-1-1-1-1-1-1-1-1-1-1-----|
D-5-5-5-5-5-5-5-5-5-5-5-5-5-5-5-5-1-1-1-1-1-1-1-1-1-1-1-1-1-1-1-1-----|

e-----------------------------------------------------------|
B-----------------------------------------------------------|
G-3-3-3-3-3-3-3-3-3-3-3-3-3-3-3-3---------------------------|
D-3-3-3-3-3-3-3-3-3-3-3-3-3-3-3-3-3~--------------4~--------|
A-1-1-1-1-1-1-1-1-1-1-1-1-1-1-1-1-3~--------------4~--------|
D---------------------------------3~--------------4~--------|

Verse 2:
Repeat Verse 1

Chorus 2:
e--------------------------------------------------------------------|
B--------------------------------------------------------------------|
G--------------------------------------------------------------------|
D-5-5-5-5-5-5-5-5-5-5-5-5-5-5-5-5-1-1-1-1-1-1-1-1-1-1-1-1-1-1-1-1----|
A-5-5-5-5-5-5-5-5-5-5-5-5-5-5-5-5-1-1-1-1-1-1-1-1-1-1-1-1-1-1-1-1----|
D-5-5-5-5-5-5-5-5-5-5-5-5-5-5-5-5-1-1-1-1-1-1-1-1-1-1-1-1-1-1-1-1----|

e--------------------------------------------------------------------|
B--------------------------------------------------------------------|
G-3-3-3-3-3-3-3-3-3-3-3-3-3-3-3-3------------------------------------|
D-3-3-3-3-3-3-3-3-3-3-3-3-3-3-3-3-3-3-3-3-3-3-3-3-4-4-4-4-4-4-4-4----|
A-1-1-1-1-1-1-1-1-1-1-1-1-1-1-1-1-3-3-3-3-3-3-3-3-4-4-4-4-4-4-4-4----|
D---------------------------------3-3-3-3-3-3-3-3-4-4-4-4-4-4-4-4----|

Solo:
Guitar One:
e-13b15----r13p12--15~----15-17-17b18--r17----------15v~------------|
B----------------15---------------------------18p17-----------------|
G-------------------------------------------------------------------|
D-------------------------------------------------------------------|
A-------------------------------------------------------------------|
D-------------------------------------------------------------------|

e--17b18r17b18r17----13~-----14~----------------/17--17-18-15~----|
B-----------------15----------------15p14h15-------15-------------|
G-----------------------------------------------------------------|
D-----------------------------------------------------------------|
A-----------------------------------------------------------------|
D-----------------------------------------------------------------|

e--15--17--18--20b22r20--18-20-15---17-15-13------13-----13/15~-----|
B--------------------------------------------15------15-------------|
G-------------------------------------------------------------------|
D-------------------------------------------------------------------|
A-------------------------------------------------------------------|
D-------------------------------------------------------------------|

e--18-17----18-17----18-----------------18-17----18-17----18-----------|
B--------15-------15----15-18b20~-------------15-------15----15-17b18~-|
G----------------------------------------------------------------------|
D----------------------------------------------------------------------|
A----------------------------------------------------------------------|
D----------------------------------------------------------------------|

e--18-17------------------------------------------------------------------|
B--------15-18-15--------------------------------18-----18----18-----/20~-|
G-----------------15-14-12-11---/14--/15--/17---17--17b18-17b18----------|
D-------------------------------------------------------------------------|
A-------------------------------------------------------------------------|
D-------------------------------------------------------------------------|

Guitar Two:
e------------------------------------------------------------------------|
B------------------------------------------------------------------------|
G------------------------------------------------------------------------|
D-5-5-5-5-5-5-5-5-5-5-5-5-5-5-5-5-1-1-1-1-1-1-1-1-1-1-1-1-1-1-1-1--------|
A-5-5-5-5-5-5-5-5-5-5-5-5-5-5-5-5-1-1-1-1-1-1-1-1-1-1-1-1-1-1-1-1--------|
D-5-5-5-5-5-5-5-5-5-5-5-5-5-5-5-5-1-1-1-1-1-1-1-1-1-1-1-1-1-1-1-1--------|

e----------------------------------------------------------------------|
B----------------------------------------------------------------------|
G----------------------------------------------------------------------|
D-3-3-3-3-3-3-3-3-3-3-3-3-3-3-3-3-0-0-0-0-0-0-0-0-0-0-0-0-0-0-0-0------|
A-3-3-3-3-3-3-3-3-3-3-3-3-3-3-3-3-0-0-0-0-0-0-0-0-0-0-0-0-0-0-0-0------|
D-3-3-3-3-3-3-3-3-3-3-3-3-3-3-3-3-0-0-0-0-0-0-0-0-0-0-0-0-0-0-0-0------|
[ Tab from: http://www.guitartabs.cc/tabs/a/avenged_sevenfold/i_wont_see_you_tonight_tab.html ]
e----------------------------------------------------------------------|
B----------------------------------------------------------------------|
G---------------------------------3-3-3-3-3-3-3-3----------------------|
D-1-1-1-1-1-1-1-1-1-1-1-1-1-1-1-1-3-3-3-3-3-3-3-3-3-3-3-3-3-3-3-3------|
A-1-1-1-1-1-1-1-1-1-1-1-1-1-1-1-1-1-1-1-1-1-1-1-1-3-3-3-3-3-3-3-3------|
D-1-1-1-1-1-1-1-1-1-1-1-1-1-1-1-1-----------------3-3-3-3-3-3-3-3------|

e-----------------------------------------------------------------------|
B-----------------------------------------------------------------------|
G-----------------------------------------------------------------------|
D-5-5-5-5-5-5-5-5-5-5-5-5-5-5-5-5-1-1-1-1-1-1-1-1-1-1-1-1-1-1-1-1-------|
A-5-5-5-5-5-5-5-5-5-5-5-5-5-5-5-5-1-1-1-1-1-1-1-1-1-1-1-1-1-1-1-1-------|
D-5-5-5-5-5-5-5-5-5-5-5-5-5-5-5-5-1-1-1-1-1-1-1-1-1-1-1-1-1-1-1-1-------|

e--------------------------------------------------------------------|
B--------------------------------------------------------------------|
G--------------------------------------------------------------------|
D-3-3-3-3-3-3-3-3-3-3-3-3-3-3-3-3-0-0-0-0-0-0-0-0-0-1-1-1-1-3-3-3----|
A-3-3-3-3-3-3-3-3-3-3-3-3-3-3-3-3-0-0-0-0-0-0-0-0-0-1-1-1-1-3-3-3----|
D-3-3-3-3-3-3-3-3-3-3-3-3-3-3-3-3-0-0-0-0-0-0-0-0-0-1-1-1-1-3-3-3----|

Chorus 3:
e----------------------------------------------------------------------|
B----------------------------------------------------------------------|
G----------------------------------------------------------------------|
D-5-5-5-5-5-5-5-5-5-5-5-5-5-5-5-5-3-3-3-3-3-3-3-3-3-3-3-3-3-3-3-3------|
A-5-5-5-5-5-5-5-5-5-5-5-5-5-5-5-5-3-3-3-3-3-3-3-3-3-3-3-3-3-3-3-3------|
D-5-5-5-5-5-5-5-5-5-5-5-5-5-5-5-5-3-3-3-3-3-3-3-3-3-3-3-3-3-3-3-3------|

e-----------------------------------------------------------------------|
B-----------------------------------------------------------------------|
G-----------------------------------------------------------------------|
D-1-1-1-1-1-1-1-1-1-1-1-1-1-1-1-1-0-0-0-0-0-0-0-0-0-1-1-1-1-3-3-3-------|
A-1-1-1-1-1-1-1-1-1-1-1-1-1-1-1-1-0-0-0-0-0-0-0-0-0-1-1-1-1-3-3-3-------|
D-1-1-1-1-1-1-1-1-1-1-1-1-1-1-1-1-0-0-0-0-0-0-0-0-0-1-1-1-1-3-3-3-------|

Post-Chorus 1:
Guitar One:
e-------------------------------------------------------------------|
B-------------------------------------------------------------------|
G--12~-------------------------/15-15b17r15b17r15~------------------|
D-------------------------------------------------------------------|
A-------------------------------------------------------------------|
D-------------------------------------------------------------------|

e-----------------------------------------------------------------------|
B-----------------------------------------------------------------------|
G--15-14----------------------/11-------/14-------/19-------/14--------|
D--------15-------------------------------------------------------------|
A-----------15-13v~-----------------------------------------------------|
D-----------------------------------------------------------------------|

e---------------------------------------------------------18-17----17---|
B------------------------------------------20--18~--------------15------|
G--17---15p14h15~---------15--17--19-19~--------------------------------|
D-----------------------------------------------------------------------|
A-----------------------------------------------------------------------|
D-----------------------------------------------------------------------|

e--18v~------------------/18-----/20v~----------------18-17-------------|
B------------------------------------------------------------18-13-------|
G------------------------------------------------------------------------|
D------------------------------------------------------------------------|
A------------------------------------------------------------------------|
D------------------------------------------------------------------------|

e------------------------------------------------------------------17b18~-|
B-------------------------------------------------------18--16------------|
G--14~----------------------------11v~-------15--14--12--------12---------|
D-------------------------------------------------------------------------|
A-------------------------------------------------------------------------|
D-------------------------------------------------------------------------|

Guitar Two:
e-----------------------------------------------------------------------|
B-----------------------------------------------------------------------|
G-----------------------------------------------------------------------|
D-5-5-5-5-5-5-5-5-5-5-5-5-5-5-5-5-1-1-1-1-1-1-1-1-1-1-1-1-1-1-1-1-------|
A-5-5-5-5-5-5-5-5-5-5-5-5-5-5-5-5-1-1-1-1-1-1-1-1-1-1-1-1-1-1-1-1-------|
D-5-5-5-5-5-5-5-5-5-5-5-5-5-5-5-5-1-1-1-1-1-1-1-1-1-1-1-1-1-1-1-1-------|

e-----------------------------------------------------------------------|
B-----------------------------------------------------------------------|
G-----------------------------------------------------------------------|
D-3-3-3-3-3-3-3-3-3-3-3-3-3-3-3-3-0-0-0-0-0-0-0-0-0-0-0-0-0-0-0-0-------|
A-3-3-3-3-3-3-3-3-3-3-3-3-3-3-3-3-0-0-0-0-0-0-0-0-0-0-0-0-0-0-0-0-------|
D-3-3-3-3-3-3-3-3-3-3-3-3-3-3-3-3-0-0-0-0-0-0-0-0-0-0-0-0-0-0-0-0-------|

e----------------------------------------------------------------------|
B----------------------------------------------------------------------|
G---------------------------------3-3-3-3-3-3-3-3----------------------|
D-1-1-1-1-1-1-1-1-1-1-1-1-1-1-1-1-3-3-3-3-3-3-3-3-3-3-3-3-3-3-3-3------|
A-1-1-1-1-1-1-1-1-1-1-1-1-1-1-1-1-1-1-1-1-1-1-1-1-3-3-3-3-3-3-3-3------|
D-1-1-1-1-1-1-1-1-1-1-1-1-1-1-1-1-----------------3-3-3-3-3-3-3-3------|

e-----------------------------------------------------------------------|
B-----------------------------------------------------------------------|
G-----------------------------------------------------------------------|
D-5-5-5-5-5-5-5-5-5-5-5-5-5-5-5-5-1-1-1-1-1-1-1-1-1-1-1-1-1-1-1-1-------|
A-5-5-5-5-5-5-5-5-5-5-5-5-5-5-5-5-1-1-1-1-1-1-1-1-1-1-1-1-1-1-1-1-------|
D-5-5-5-5-5-5-5-5-5-5-5-5-5-5-5-5-1-1-1-1-1-1-1-1-1-1-1-1-1-1-1-1-------|

e-----------------------------------------------------------------------|
B-----------------------------------------------------------------------|
G-----------------------------------------------------------------------|
D-3-3-3-3-3-3-3-3-3-3-3-3-3-3-3-3-0-0-0-0-0-0-0-0-0-1-1-1-1-3-3-3-------|
A-3-3-3-3-3-3-3-3-3-3-3-3-3-3-3-3-0-0-0-0-0-0-0-0-0-1-1-1-1-3-3-3-------|
D-3-3-3-3-3-3-3-3-3-3-3-3-3-3-3-3-0-0-0-0-0-0-0-0-0-1-1-1-1-3-3-3-------|

Post-Chorus 2:
Guitar One:
e-----------------------------------------------------------------------|
B-----------------------------------------------------------------------|
G-----------------------------------------------------------------------|
D---7-8-7-8--------8-7-8-10-8-7-8-7-8-7-8-------8-7-8-10-8-7-8----------|
A-----------10----------------------------8-----------------------------|
D-----------------------------------------------------------------------|

e-------------------------------------------------------------------------|
B-------------------------------------------------------------------------|
G-------------------------------------------------------------------------|
D---7-8-7-8--------8-7-8-10-8-7-8-7-8-7-8-------------------------7-------|
A-----------10----------------------------8-----------10------------------|
D-------------------------------------------------------------------------|

Guitar Two:
e------------------------------------------------------------------------|
B------------------------------------------------------------------------|
G---5-7-5-7--------7-5-7-8-7-5-7-5-7-5-7--------7-5-7-8-7-5-7------------|
D-----------8----------------------------7-------------------------------|
A------------------------------------------------------------------------|
D------------------------------------------------------------------------|

e--------------------------------------------------------------------------|
B--------------------------------------------------------------------------|
G---5-7-5-7--------7-5-7-8-7-5-7-5-7-5-7--------------------------5--------|
D-----------8----------------------------7------------8--------------------|
A--------------------------------------------------------------------------|
D--------------------------------------------------------------------------|

Guitar Three:
e------------------------------------------------------------------------|
B------------------------------------------------------------------------|
G------------------------------------------------------------------------|
D-5-5-5-5-5-5-5-5-5-5-5-5-5-5-5-5-3-3-3-3-3-3-3-3-3-3-3-3-3-3-3-3--------|
A-5-5-5-5-5-5-5-5-5-5-5-5-5-5-5-5-3-3-3-3-3-3-3-3-3-3-3-3-3-3-3-3--------|
D-5-5-5-5-5-5-5-5-5-5-5-5-5-5-5-5-3-3-3-3-3-3-3-3-3-3-3-3-3-3-3-3--------|

e-------------------------------------------------------------------------|
B-------------------------------------------------------------------------|
G-------------------------------------------------------------------------|
D-1-1-1-1-1-1-1-1-1-1-1-1-1-1-1-1-0-0-0-0-0-0-0-0-0-1-1-1-1-3-3-3---------|
A-1-1-1-1-1-1-1-1-1-1-1-1-1-1-1-1-0-0-0-0-0-0-0-0-0-1-1-1-1-3-3-3---------|
D-1-1-1-1-1-1-1-1-1-1-1-1-1-1-1-1-0-0-0-0-0-0-0-0-0-1-1-1-1-3-3-3---------|

e-------------------------------------------------------------------------|
B-------------------------------------------------------------------------|
G-------------------------------------------------------------------------|
D-5-5-5-5-5-5-5-5-5-5-5-5-5-5-5-5-3-3-3-3-3-3-3-3-3-3-3-3-3-3-3-3---------|
A-5-5-5-5-5-5-5-5-5-5-5-5-5-5-5-5-3-3-3-3-3-3-3-3-3-3-3-3-3-3-3-3---------|
D-5-5-5-5-5-5-5-5-5-5-5-5-5-5-5-5-3-3-3-3-3-3-3-3-3-3-3-3-3-3-3-3---------|

e-------------------------------------------------------------------------|
B-------------------------------------------------------------------------|
G-------------------------------------------------------------------------|
D-1-1-1-1-1-1-1-1-1-1-1-1-1-1-1-1-0-0-0-0-0-0-0-0-0-1-1-1-1-3-3-3-5~------|
A-1-1-1-1-1-1-1-1-1-1-1-1-1-1-1-1-0-0-0-0-0-0-0-0-0-1-1-1-1-3-3-3-5~------|
D-1-1-1-1-1-1-1-1-1-1-1-1-1-1-1-1-0-0-0-0-0-0-0-0-0-1-1-1-1-3-3-3-5~------|

-Piano Interlude-

Outro:
e------------------------------------------------------------------------|
B------------------------------------------------------------------------|
G-:-:-:-:-:-:-:-:-:-:-:-:-:-:-:-:-:-:-:-:-:-:-:-:------------------------|
D-5-5-5-5-5-5-5-5-5-5-5-5-3-3-3-3-3-3-3-3-3-3-3-3------------------------|
A-5-5-5-5-5-5-5-5-5-5-5-5-3-3-3-3-3-3-3-3-3-3-3-3------------------------|
D-5-5-5-5-5-5-5-5-5-5-5-5-3-3-3-3-3-3-3-3-3-3-3-3------------------------|

e--------------------------------------------------------------------------|
B--------------------------------------------------------------------------|
G-:-:-:-:-:-:-:-:-:-:-:-:-:-:-:-:-:-:-:-:-:-:-:-:--------------------------|
D-1-1-1-1-1-1-1-1-1-1-1-1-0-0-0-0-0-0-0-0-0-0-0-0--------------------------|
A-1-1-1-1-1-1-1-1-1-1-1-1-0-0-0-0-0-0-0-0-0-0-0-0--------------------------|
D-1-1-1-1-1-1-1-1-1-1-1-1-0-0-0-0-0-0-0-0-0-0-0-0--------------------------|

e-------------------------------------------------------------------------|
B-------------------------------------------------------------------------|
G-------------------------------------------------------------------------|
D-5-5-5-5-5-5-5-5-3-3-3-3-3-3-3-3-1-1-1-1-1-1-1-1-3-3-3-3-3-3-3-3---------|
A-5-5-5-5-5-5-5-5-3-3-3-3-3-3-3-3-1-1-1-1-1-1-1-1-3-3-3-3-3-3-3-3---------|
D-5-5-5-5-5-5-5-5-3-3-3-3-3-3-3-3-1-1-1-1-1-1-1-1-3-3-3-3-3-3-3-3---------|

e--------------------------------------------------------------------------|
B--------------------------------------------------------------------------|
G--------------------------------------------------------------------------|
D-5-5-5-5-5-5-5-5-5-5-5-5-5-5-5-5-3-3-3-3-3-3-3-3-3-3-3-3-3-3-3-3----------|
A-5-5-5-5-5-5-5-5-5-5-5-5-5-5-5-5-3-3-3-3-3-3-3-3-3-3-3-3-3-3-3-3----------|
D-5-5-5-5-5-5-5-5-5-5-5-5-5-5-5-5-3-3-3-3-3-3-3-3-3-3-3-3-3-3-3-3----------|

e-------------------------------------------------------------------------|
B-------------------------------------------------------------------------|
G-------------------------------------------------------------------------|
D-1-1-1-1-1-1-1-1-1-1-1-1-1-1-1-1-0-0-0-0-0-0-0-0-0-0-0-0-0-0-0-0---------|
A-1-1-1-1-1-1-1-1-1-1-1-1-1-1-1-1-0-0-0-0-0-0-0-0-0-0-0-0-0-0-0-0---------|
D-1-1-1-1-1-1-1-1-1-1-1-1-1-1-1-1-0-0-0-0-0-0-0-0-0-0-0-0-0-0-0-0---------|


if u have any problems, or questions e-mail me at: KoRn_6661@hotmail.com
Comments