Avenged Sevenfold - I Wont See You Tonight Part 2 Chords & Tabs

 

I Wont See You Tonight Part 2 Chords & Tabs

Avenged Sevenfold Chords & Tabs

Version: 3 Type: Tab 0 ratings
1 star 2 stars 3 stars 4 stars 5 stars
comments

I Wont See You Tonight Part 2 Tab

   
Yea The Really Fast Part of Solo is pretty much impossible so the solo in this tab is
good until it gets to the fast part which I just put in notes that are possibly correct
but not likely.


I WON'T SEE YOU TONIGHT PART 2
As recorded by Avenged Sevenfold
(From the 2003 Album WAKING THE FALLEN
Words and Music by Avenged Sevenfold
Arranged by Avenged Sevenfold

Gtr I (D A D G B E) - 'Untitled'
Gtr II (D A D G B E) - 'Untitled'
Gtr III (D A D G B E) - 'Untitled'

 Intro
  Fast Rock Q=210
  D5
 4/4
  Gtr I
   PM---------------------------------------------
|-----------------------|------------------------|
|-----------------------|------------------------|
|-----------------------|------------------------|
|-----------------------|------------------------|
|--0-0-0-0-0----0-0-0-0-|---0---------0-0-0-0-0--|
|--0-0-0-0-0----0-0-0-0-|---0---------0-0-0-0-0--|
|
| Gtr II
|                                 \7
|-19--------------------|-(19)--(19)-------------|
|-15--------------------|-(15)--(15)-------------|
|-----------------------|------------------------|
|-----------------------|------------------------|
|-----------------------|------------------------|
|-----------------------|------------------------|


 -----------------------------------------------|
|-----------------------|-------------------------|
|-----------------------|-------------------------|
|-----------------------|-------------------------|
|-----------------------|-------------------------|
|--0-0-0-0-0----0-0-0-0-|---0---------0-0-0-0-0---|
|--0-0-0-0-0----0-0-0-0-|---0---------0-0-0-0-0---|
|
|                                 \7
|-16--------------------|-(16)--(16)--------------|
|-15--------------------|-(15)--(15)--------------|
|-----------------------|-------------------------|
|-----------------------|-------------------------|
|-----------------------|-------------------------|
|-----------------------|-------------------------|


  D5
   PM---------------------------------------------
|-----------------------|------------------------|
|-----------------------|------------------------|
|-----------------------|------------------------|
|-----------------------|------------------------|
|--0-0-0-0-0----0-0-0-0-|---0---------0-0-0-0-0--|
|--0-0-0-0-0----0-0-0-0-|---0---------0-0-0-0-0--|
|
|                                 \7
|-20--------------------|-(20)--(20)-------------|
|-18--------------------|-(18)--(18)-------------|
|-----------------------|------------------------|
|-----------------------|------------------------|
|-----------------------|------------------------|
|-----------------------|------------------------|


 ----------------------------------------------------|
|------------------------------|---------------------------||
|------------------------------|---------------------------||
|------------------------------|---------------------------||
|------------------------------|---------------------------||
|--0-0-0-0-0----------0--0-0-0-|---0---------0-0-0-0-0-----||
|--0-0-0-0-0----------0--0-0-0-|---0---------0-0-0-0-0-----||
|
|                                        \7
|-19----------19-----20--------|-(20)--(20)----------------||
|-18---------(18)---(18)-------|-(18)--(18)----------------||
|------------------------------|---------------------------||
|------------------------------|---------------------------||
|------------------------------|---------------------------||
|------------------------------|---------------------------||


   Verse
    D5
    Gtrs I, II
    PM--------------------------------------
||-----------------------|-----------------|
||o----------------------|-----------------|
||-----------------------|-----------------|
||-----------------------|-----------------|
||o-0-0-0-0-0----0-0-0-0-|-0----0-0-0-0-0--|
||--0-0-0-0-0----0-0-0-0-|-0----0-0-0-0-0--|


 -------------------------------------|
|----------------------|--------------------||
|----------------------|-------------------o||
|----------------------|--------------------||
|----------------------|--------------------||
|-0-0-0-0-0----0-0-0-0-|-0----0-0-0-0-0----o||
|-0-0-0-0-0----0-0-0-0-|-0----0-0-0-0-0-----||


   Bridge
    Eb5             Bb5       A5        D5              F5        G5
    Gtr I
||----------------|-------------------|---------------|-----------------------||
||o---------------|-------------------|---------------|----------------------o||
||----------------|-------------------|---------------|-----------------------||
||--1----------1S=|==8--------7-------|-0---0------0--|--3--------5---(5)\----||
||o-1----------1S=|==8--------7-------|-0---0------0--|--3--------5---(5)\---o||
||--1----------1S=|==8--------7-------|-0---0------0--|--3--------5---(5)\----||
|
|   Gtr II
||----------------|-----------5-------|---------------|-----------5-----------||
||o-5-6-5-6-------|-----6-5-6---6-5-6-|-5-6-5-6-------|-----6-5-6---6--5---6-o||
||----------7-----|-(7)---------------|---------7-----|-(7)-------------------||
||----------------|-------------------|---------------|-----------------------||
||o---------------|-------------------|---------------|----------------------o||
||----------------|-------------------|---------------|-----------------------||
|
|   Gtr III
||----------------|-------------------|---------------|-----------------------||
||o---------------|-----------6-------|---------------|-----------6----------o||
||--6-7-6-7-------|-----7-6-7---7-6-7-|-6-7-6-7-------|-----7-6-7---7--6---7--||
||----------8-----|-(8)---------------|---------8-----|-(8)-------------------||
||o---------------|-------------------|---------------|----------------------o||
||----------------|-------------------|---------------|-----------------------||


   Verse
    D5
    Gtrs I, II
    PM--------------------------------------
||-----------------------|-----------------|
||o----------------------|-----------------|
||-----------------------|-----------------|
||-----------------------|-----------------|
||o-0-0-0-0-0----0-0-0-0-|-0----0-0-0-0-0--|
||--0-0-0-0-0----0-0-0-0-|-0----0-0-0-0-0--|


 -------------------------------------|
                                            4x
|----------------------|--------------------||
|----------------------|-------------------o||
|----------------------|--------------------||
|----------------------|--------------------||
|-0-0-0-0-0----0-0-0-0-|-0----0-0-0-0-0----o||
|-0-0-0-0-0----0-0-0-0-|-0----0-0-0-0-0-----||


 Bridge
  Slower Q=139
  D5        D5/AD5                D5/A
  Gtr I
  PM------|     PM--------------|
|-----------10------|-------------10--10--|
|-----------10------|-------------10--10--|
|-------------------|---------------------|
|-------------------|---------------------|
|-0-0-(0)-0-----0-0-|-(0)-0-(0)-0---------|
|-0-0-(0)-0-----0-0-|-(0)-0-(0)-0---------|


  D5        D5/AD5                D5/A
  Gtrs I, II
  PM------|     PM--------------|
|-----------10------|-------------10--10---|
|-----------10------|-------------10--10---|
|-------------------|----------------------|
|-------------------|----------------------|
|-0-0-(0)-0-----0-0-|-(0)-0-(0)-0----------|
|-0-0-(0)-0-----0-0-|-(0)-0-(0)-0----------|


    $
    D5              D5/D5                                D5/D5  D5/D5
    PM------------|    PM------------------------------|    PM|    PM|
||------------------10-----------|-----------------------10-----10-------||
||o-----------------10-----------|-----------------------10-----10------o||
||-------------------------------|---------------------------------------||
||-------------------------------|---------------------------------------||
||o-0-0-0-(0)-0-0-0----0-0-0-0-0-|-(0)-0-0-0-(0)-0-(0)-0----0-0----0-0--o||
||--0-0-0-(0)-0-0-0----0-0-0-0-0-|-(0)-0-0-0-(0)-0-(0)-0----0-0----0-0---||


 Breakdown
  N.C.
|-------------------------------------|--------------------------------------|
|-------------------------------------|--------------------------------------|
|-------------------------------------|--------------------------------------|
|-------------------------------------|--------------------------------------|
|-------------------------------------|--------------------------------------|
|-0-12-0-11-0-0-10-0-9-8-7-0-5b6-(5)/-|-0-12-0-11-0-0-10-0-9-8-7-0-5b6-(5)/--|


  N.C.
|-------------------------------------|
|-------------------------------------|
|-------------------------------------|
|-------------------------------------|
|-------------------------------------|
|-0-12-0-11-0-0-10-0-9-8-7-0-5b6-(5)/-|


                                         To Coda
                                      D5   Ab5
|-----------------------------------|----------------||
|-----------------------------------|----------------||
|-----------------------------------|----------------||
|-----------------------------------|-0----/6---(6)\-||
|-----------------------------------|-0----/6---(6)\-||
|-0-12-0-11-0-0-10-0-5b6.5--(5)-(5)-|-0----/6---(6)\-||


   Interlude
    D5        N.C.     D5      N.C.    D5      N.C.   D5    N.C. D5
    Gtr I
      PM|   PM         PM|   PM        PM|   PM       PM--|      PM|
||------------------|---------------|---------------|----------------|
||o-----------------|---------------|---------------|----------------|
||------------------|---------------|---------------|----------------|
||--0-----0----8--7-|------0---7--6-|------0---5--3-|-------3--2-----|
||o-0-0-0-0-0-------|--0-0-0-0------|--0-0-0-0------|-0-0-0------0-0-|
||--0-0-0-0-0-------|--0-0-0-0------|--0-0-0-0------|-0-0-0------0-0-|
|
|   Gtr II
|     PM|   PM         PM|   PM        PM|   PM       PM--|      PM|
||------------------|---------------|---------------|----------------|
||o-----------------|---------------|---------------|----------------|
||------------------|---------------|---------------|----------------|
||--0-----0---------|------0--------|------0--------|----------------|
||o-0-0-0-0-0-10--8-|--0-0-0-0-8--7-|--0-0-0-0-7--5-|-0-0-0-5--4-0-0-|
||--0-0-0-0-0-------|--0-0-0-0------|--0-0-0-0------|-0-0-0------0-0-|


  1.                                2.
  Eb5      F5GbG5  D5   Ab5          Eb5
                   PM
|----------------|----------------||--------------||
|----------------|---------------o||--------------||
|----------------|----------------||--------------||
|-1--1-1-1-3-4-5-|------6---(6)\--||-1-------(1)/-||
|-1--1-1-1-3-4-5-|-0----6---(6)\-o||-1-------(1)/-||
|-1--1-1-1-3-4-5-|-0----6---(6)\--||-1-------(1)/-||
|
|                  PM
|----------------|----------------||--------------||
|----------------|---------------o||--------------||
|----------------|----------------||--------------||
|-1--------------|------6---(6)\--||-1-------(1)/-||
|-1--------------|-0----6---(6)\-o||-1-------(1)/-||
|-1--------------|-0----6---(6)\--||-1-------(1)/-||


    N.C.    D5      N.C.    Eb5  G5    Ab5   EbF5
    Gtrs I, II
    PM----|   PM|   PM----|
||----------------------------|-------------------|
||o---------------------------|-------------------|
||----------------------------|-------------------|
||----------7-----7---------8-|--5-(5)-6-(6)-1-3--|
||o---------5-----5-2-3-4-5-6-|--5-(5)-6-(6)-1-3--|
||--0-0-0-0---0-0-------------|--5-(5)-6-(6)-1-3--|


  N.C.    D5      N.C.    Eb5        F5    G5    A5
  PM----|   PM|   PM----|
                                                    4x
|---------------------------|-----------------------||
|---------------------------|----------------------o||
|---------------------------|-----------------------||
|---------7-----7---------8-|--1-(1)-3-(3)-5-(5)-7--||
|---------5-----5-2-3-4-5-6-|--1-(1)-3-(3)-5-(5)-7-o||
|-0-0-0-0---0-0-------------|--1-(1)-3-(3)-5-(5)-7--||


   Breakdown
    D5   Db5  C5 B5BbA5      Ab5 G5F5
                                      ~~~
||---------------------|------------------|
||o--------------------|------------------|
||---------------------|------------------|
||---------------------|------------------|
||o---12-11---10-9-8-7-|---7-6---5-3-(3)--|
||--0-12-11-0-10-9-8-7-|-0-7-6-0-5-3-(3)--|


  D5   Db5  C5 B5BbA5      Ab5 G5F5
                                    ~~~
|--------------------|-------------------||
|--------------------|------------------o||
|--------------------|-------------------||
|--------------------|-------------------||
|---12-11---10-9-8-7-|---7-6---5-3-(3)--o||
|-0-12-11-0-10-9-8-7-|-0-7-6-0-5-3-(3)---||


 Bridge
  D5
 7/4
  Gtrs I, II
  PM----------------------------------------------------------------------|
|-------------------------------------|--------------------------------------|
|-------------------------------------|--------------------------------------|
|-------------------------------------|--------------------------------------|
|-------------------------------------|--------------------------------------|
|-0-0--0-0---0-0-0-0-(0)-0-0-0-0-0----|-0-0--0-0---0-0-0-0-(0)-0-0-0-0-0-----|
|-0-0--0-0---0-0-0-0-(0)-0-0-0-0-0----|-0-0--0-0---0-0-0-0-(0)-0-0-0-0-0-----|


  D5
  Gtrs I, II
  PM-----------------------------------
|-------------------------------------|
|-------------------------------------|
|-------------------------------------|
|-------------------------------------|
|-0-0--0-0---0-0-0-0-(0)-0-0-0-0-0----|
|-0-0--0-0---0-0-0-0-(0)-0-0-0-0-0----|
|
| Gtr III
|-------------------------------------|
|-------------------------------------|
|-------------------------------------|
|-------------------------------------|
|-------------------------------------|
|-------------------------------------|


 ---------------------------------------------|
|-----------------------------------------------------------||
|-----------------------------------------------------------||
|-----------------------------------------------------------||
|-----------------------------------------------------------||
|-0-0--0-0---0-0-0-0-(0)--0--0--0--0--0---------------------||
|-0-0--0-0---0-0-0-0-(0)--0--0--0--0--0---------------------||
|
|-----------------------------------------------------------||
|------------------------16-13-------------------13----13---||
|------------------------------14-12----12-13-14----14------||
|------------------------------------16---------------------||
|-----------------------------------------------------------||
|-----------------------------------------------------------||


 Guitar Solo
  D5
   PM---------------------------------------------------------
|------------------------------------------------------------|
|------------------------------------------------------------|
|------------------------------------------------------------|
|------------------------------------------------------------|
|--0-0--0-0---0-0-0-0-(0)-0-0-0-0-0--------------------------|
|--0-0--0-0---0-0-0-0-(0)-0-0-0-0-0--------------------------|
|
|  ~~
|------------------------------------------------------------|
|-16---------------------------------13-------------------13-|
|---------------------------------------14-12----12-13-14----|
|---------------------------------------------16-------------|
|------------------------------------------------------------|
|------------------------------------------------------------|


 -------------------------------------------------|
|----------------------------------------------------------|
|----------------------------------------------------------|
|----------------------------------------------------------|
|----------------------------------------------------------|
|--0----0----0--0---0-0-0-0-(0)-0-0-0--0-0-----------------|
|--0----0----0--0---0-0-0-0-(0)-0-0-0--0-0-----------------|
|
|-14b15----(14)--------------------------------------17----|
|-------------------------------------13-------13-16----16-|
|------------------------------------------14--------------|
|----------------------------------------------------------|
|----------------------------------------------------------|
|----------------------------------------------------------|


  D5
   PM--------------------------------------------------
|-----------------------------------------------------|
|-----------------------------------------------------|
|-----------------------------------------------------|
|-----------------------------------------------------|
|--0-0----0-----0-------0-0------0-0-(0)-0-0-0-0-0----|
|--0-0----0-----0-------0-0------0-0-(0)-0-0-0-0-0----|
|
|-16----(16)b18----(16)-----(16)----------------------|
|-----------------------------------------------------|
|-----------------------------------------------------|
|-----------------------------------------------------|
|-----------------------------------------------------|
|-----------------------------------------------------|


 --------------------------------------------------------------------------|
|--------------------------------------------------------------------------------------||
|--------------------------------------------------------------------------------------||
|--------------------------------------------------------------------------------------||
|--------------------------------------------------------------------------------------||
|--0--0--------0--0--------------0--0-----0-----0-(0)--0--0--0--0--0-------------------||
|--0--0--------0--0--------------0--0-----0-----0-(0)--0--0--0--0--0-------------------||
|
|--------------------------------------------------------------------------------------||
|-16----------15-16-15-----------------------------------------------------------------||
|----15-14-15-------------15----------17----------15-----------17----------15----------||
|----------------------16----16-15-16----16-15-16-----16-15-16----16-15-16----16-15-16-||
|--------------------------------------------------------------------------------------||
|--------------------------------------------------------------------------------------||

[ Tab from: http://www.guitartabs.cc/tabs/a/avenged_sevenfold/i_wont_see_you_tonight_part_2_tab_ver_3.html ]
  D5        Ab5             G5          D5                N.C.
 4/4
    PM---|                               PM---------|
|--------------------------------------------------------------------------------|
|--------------------------------------------------------------------------------|
|--------------------------------------------------------------------------------|
|-0----------6-(6)-----------5---------------------------------------------------|
|-0-0--0--0--6-(6)-----------5-----------0-----0-----0---------------------------|
|-0-0--0--0--6-(6)-----------5-----------0-----0-----0-----4b4.5----(4)----------|
|
|-----------17-20--18------------------------------------------------------------|
|-----16-15-----------20---------------------------------------------------------|
|------------------------19----------19-20-19------------------------------------|
|---------------------------20-19-20----------19-20-17----17---------------------|
|------------------------------------------------------20--------20-18--17-18-17-|
|--------------------------------------------------------------------------------|


                 D5                                  Eb5         D5          F5          D5
                  PM---------|                                    PM---|                  PM---|
|-------------------------------------------------------------------------------------------------------|
|-------------------------------------------------------------------------------------------------------|
|-------------------------------------------------------------------------------------------------------|
|-----------------------------------0-----------------1-----------------------3-------------------------|
|-----------------0-----0-----0-----0-----------------1-----------0-----0-----3-----------0-----0-------|
|-(4)b5-----------0-----0-----0-----0-----------------1-----------0-----0-----3-----------0-----0-------|
|
|-------------------------------------------------------------------------------------------------------|
|-------------------------------------------------------------------------------------------------------|
|-------------------------------------------------------------------------------------------------------|
|-------------------------------------------------------------------------17----------17-19-20-19-17----|
|-------17-18-17-20-18-17----17-------------------15-------------17-19-20----20-19-20-------------------|
|-20----------------------20----20-19-17-15-17-19----19-17-19-20----------------------------------------|


  D5                            Ab5                G5          D5                N.C.
               PM---------|                                     PM---------|
|-------------------------------------------------------------------------------------------------------|
|-------------------------------------------------------------------------------------------------------|
|-------------------------------------------------------------------------------------------------------|
|--0-----------------------------6----(6)-----------5---------------------------------------------------|
|--0-----------0-----0-----0-----6----(6)-----------5-----------0-----0-----0---------------------------|
|--0-----------0-----0-----0-----6----(6)-----------5-----------0-----0-----0-----4b4.5----(4)----------|
|
|-------------------------------------------------------------------------------------------------------|
|----------18-------------------------------------------------------------------------------------------|
|-19-20-19----19-20-19-17----------17-19--20-19-17----17------------------------------------------------|
|-------------------------20-19-17-----------------20----20-19-17----17----------17-----19-----17-19-20-|
|-----------------------------------------------------------------20----20-19-20-----------20-----------|
|-------------------------------------------------------------------------------------------------------|


                 D5                                  Eb5   D5          F5          D5
                  PM---------|                              PM---|                  PM---|
|-----------------------------------------------------------------------------------------------|
|-----------------------------------------------------------------------------------------------|
|-----------------------------------------------------------------------------------------------|
|-----------------------------------0-----------------1-----------------3-----------------------|
|-----------------0-----0-----0-----0-----------------1-----0-----0-----3-----------0-----0-----|
|-(4)b5-----------0-----0-----0-----0-----------------1-----0-----0-----3-----------0-----0-----|
|
|----------------------------------18-20-18----17-20-23-23----------23-23-23-23-23----------23--|
|-------------------------18-20-22----------22-------------22-23-22----------------22-23-22-----|
|-17----19-20----17-19-20-----------------------------------------------------------------------|
|-------------20--------------------------------------------------------------------------------|
|-----------------------------------------------------------------------------------------------|
|-----------------------------------------------------------------------------------------------|


  D5                      Ab5                G5       D5                N.C.
         PM---------|                                  PM---------|
|----------------------------------------------------------------------------------------------|
|----------------------------------------------------------------------------------------------|
|----------------------------------------------------------------------------------------------|
|--0-----------------------6----(6)-----------5------------------------------------------------|
|--0-----0-----0-----0-----6----(6)-----------5--------0-----0-----0---------------------------|
|--0-----0-----0-----0-----6----(6)-----------5--------0-----0-----0-----4b4.5----(4)----------|
|
|-23-23----------23-23-23-23-23-----------23-17-20-18------------------------------------------|
|-------22-23-22----------------22--23-22-------------20---------------------------------------|
|--------------------------------------------------------19----------19-20-----19--------------|
|-----------------------------------------------------------20-19-20--------------19--20-17----|
|-------------------------------------------------------------------------------------------20-|
|----------------------------------------------------------------------------------------------|


                 D5                                  Eb5         D5          F5          D5
                  PM---------|                                    PM---|                  PM---|
|------------------------------------------------------------------------------------------------------|
|------------------------------------------------------------------------------------------------------|
|------------------------------------------------------------------------------------------------------|
|-----------------------------------0-----------------1-----------------------3------------------------|
|-----------------0-----0-----0-----0-----------------1-----------0-----0-----3-----------0-----0------|
|-(4)b5-----------0-----0-----0-----0-----------------1-----------0-----0-----3-----------0-----0------|
|
|------------------------------------------------------------------------------------------------------|
|------------------------------------------------------------------------------------------------------|
|------------------------------------------------------------------------------------------------------|
|-17----------------------------------------------------------------------------------------17-19-20---|
|-------20-18-17-18-17----17-18-17-20-18-17----17-------------------15-------------17-19-20------------|
|----------------------20-------------------20----20-19-17-15-17-19----19-17-19-20---------------------|


  D5                            Ab5                G5          D5                N.C.
               PM---------|                                     PM---------|
|-------------------------------------------------------------------------------------------------------|
|-------------------------------------------------------------------------------------------------------|
|-------------------------------------------------------------------------------------------------------|
|--0-----------------------------6----(6)-----------5---------------------------------------------------|
|--0-----------0-----0-----0-----6----(6)-----------5-----------0-----0-----0---------------------------|
|--0-----------0-----0-----0-----6----(6)-----------5-----------0-----0-----0-----4b4.5----(4)----------|
|
|-------------------------------18-20-18----------------------------------------------------------------|
|----------------------18-20-22-----------22-20---------------------------------------------------------|
|-17-19-20----17-19-20--------------------------19----------19-20-19------------------------------------|
|----------20--------------------------------------20-19-20----------19-20-17----17-----19-17-----------|
|-----------------------------------------------------------------------------20---------------20-19-20-|
|-------------------------------------------------------------------------------------------------------|


                 D5                                  Eb5         D5          F5          D5
                  PM---------|                                    PM---|                  PM---|
|-------------------------------------------------------------------------------------------------------||
|-------------------------------------------------------------------------------------------------------||
|-------------------------------------------------------------------------------------------------------||
|-----------------------------------0-----------------1-----------------------3-------------------------||
|-----------------0-----0-----0-----0-----------------1-----------0-----0-----3-----------0-----0-------||
|-(4)b5-----------0-----0-----0-----0-----------------1-----------0-----0-----3-----------0-----0-------||
|
|----------------------------------------------------------------------------------------------18-------||
|-------------------------------------------------------------------------------------18----18----20----||
|-17----19-17----------------------------17-19-17----------17-19-17----17-19-20-19-17----20-------------||
|-------------20-19-20-17-19-17-------------------20-19-20----------20----------------------------------||
|-------------------------------20-19-20----------------------------------------------------------------||
|-------------------------------------------------------------------------------------------------------||


 Chorus
  G5
|-------------------------|-----------------------|
|-------------------------|-----------------------|
|-------------------------|-----------------------|
|--5-----5-5-5---5--5-5-5-|---5--5-5-5-5-5-5---5--|
|--5-----5-5-5---5--5-5-5-|---5--5-5-5-5-5-5---5--|
|--5-----5-5-5---5--5-5-5-|---5--5-5-5-5-5-5---5--|
|
|-------------------------|-----------------------|
|-18b20========(18)-------|-(18)-------------(18)r|
|-------------------------|-----------------------|
|-------------------------|-----------------------|
|-------------------------|-----------------------|
|-------------------------|-----------------------|


  Eb5                                   D5
|--------------------|---------------------|
|--------------------|---------------------|
|--------------------|---------------------|
|---1--1-1-1-1-1-1-1-|---1--1-1-1-1-1-1----|
|---1--1-1-1-1-1-1-1-|---1--1-1-1-1-1-1-0--|
|---1--1-1-1-1-1-1-1-|---1--1-1-1-1-1-1-0--|
|
|--------------------|---------------------|
|-(18)---------------|-(18)----------------|
|--------------------|---------------------|
|--------------------|---------------------|
|--------------------|---------------------|
|--------------------|---------------------|


  Bb5                                       F5                Gb5
|--------------------|--------------------|-----------------|------------------|
|--------------------|--------------------|-----------------|------------------|
|--------------------|--------------------|-----------------|------------------|
|---8--8-8-8-8-8-8-8-|---8--8-8-8-8-8-8-8-|-3-3-3-3-3-3-3-3-|-4-4-4-4-4-4-4-4--|
|---8--8-8-8-8-8-8-8-|---8--8-8-8-8-8-8-8-|-3-3-3-3-3-3-3-3-|-4-4-4-4-4-4-4-4--|
|---8--8-8-8-8-8-8-8-|---8--8-8-8-8-8-8-8-|-3-3-3-3-3-3-3-3-|-4-4-4-4-4-4-4-4--|
|
|   >
|--------------------|--------------------|-----------------|------------------|
|-(18)---------------|-(18)---------------|-----------------|------------------|
|--------------------|--------------------|-----------------|------------------|
|--------------------|--------------------|-----------------|------------------|
|--------------------|--------------------|-----------------|------------------|
|--------------------|--------------------|-----------------|------------------|


  G5                                  Eb5                             D5
  Gtrs I, II
|-----------------|-----------------|-----------------|------------------|
|-----------------|-----------------|-----------------|------------------|
|-----------------|-----------------|-----------------|------------------|
|-5-5-5-5-5-5-5-5-|-5-5-5-5-5-5-5-5-|-1-1-1-1-1-1-1-1-|-1-1-1-1-1-1-1----|
|-5-5-5-5-5-5-5-5-|-5-5-5-5-5-5-5-5-|-1-1-1-1-1-1-1-1-|-1-1-1-1-1-1-1-0--|
|-5-5-5-5-5-5-5-5-|-5-5-5-5-5-5-5-5-|-1-1-1-1-1-1-1-1-|-1-1-1-1-1-1-1-0--|


  Bb5                                 F5                Gb5
|-----------------|-----------------|-----------------|------------------||
|-----------------|-----------------|-----------------|------------------||
|-----------------|-----------------|-----------------|------------------||
|-8-8-8-8-8-8-8-8-|-8-8-8-8-8-8-8-8-|-3-3-3-3-3-3-3-3-|-4-4-4-4-4-4-4-4--||
|-8-8-8-8-8-8-8-8-|-8-8-8-8-8-8-8-8-|-3-3-3-3-3-3-3-3-|-4-4-4-4-4-4-4-4--||
|-8-8-8-8-8-8-8-8-|-8-8-8-8-8-8-8-8-|-3-3-3-3-3-3-3-3-|-4-4-4-4-4-4-4-4--||


   Bridge
                                                         D.S. al Coda
    D5              D5/D5                                D5/D5  D5/D5
    PM------------|    PM------------------------------|    PM|    PM|
||------------------10-----------|-----------------------10-----10-------||
||o-----------------10-----------|-----------------------10-----10------o||
||-------------------------------|---------------------------------------||
||-------------------------------|---------------------------------------||
||o-0-0-0-(0)-0-0-0----0-0-0-0-0-|-(0)-0-0-0-(0)-0-(0)-0----0-0----0-0--o||
||--0-0-0-(0)-0-0-0----0-0-0-0-0-|-(0)-0-0-0-(0)-0-(0)-0----0-0----0-0---||


   Interlude
    &
    D5        N.C.     D5      N.C.    D5      N.C.   D5    N.C. D5
    Gtr I
      PM|   PM         PM|   PM        PM|   PM       PM--|      PM|
||------------------|---------------|---------------|----------------|
||o-----------------|---------------|---------------|----------------|
||------------------|---------------|---------------|----------------|
||--0-----0----8--7-|------0---7--6-|------0---5--3-|-------3--2-----|
||o-0-0-0-0-0-------|--0-0-0-0------|--0-0-0-0------|-0-0-0------0-0-|
||--0-0-0-0-0-------|--0-0-0-0------|--0-0-0-0------|-0-0-0------0-0-|
|
|   Gtr II
|     PM|   PM         PM|   PM        PM|   PM       PM--|      PM|
||------------------|---------------|---------------|----------------|
||o-----------------|---------------|---------------|----------------|
||------------------|---------------|---------------|----------------|
||--0-----0---------|------0--------|------0--------|----------------|
||o-0-0-0-0-0-10--8-|--0-0-0-0-8--7-|--0-0-0-0-7--5-|-0-0-0-5--4-0-0-|
||--0-0-0-0-0-------|--0-0-0-0------|--0-0-0-0------|-0-0-0------0-0-|


  Eb5            D5   Ab5
                 PM
|--------------|---------------|
|--------------|---------------|
|--------------|---------------|
|-1-------(1)/-|------6---(6)\-|
|-1-------(1)/-|-0----6---(6)\-|
|-1-------(1)/-|-0----6---(6)\-|
|
|                PM
|--------------|---------------|
|--------------|---------------|
|--------------|---------------|
|-1-------(1)/-|------6---(6)\-|
|-1-------(1)/-|-0----6---(6)\-|
|-1-------(1)/-|-0----6---(6)\-|


  D5        N.C.     D5      N.C.    D5      N.C.   D5    N.C. D5
    PM|   PM         PM|   PM        PM|   PM       PM--|      PM|
|-----------------|---------------|---------------|-----------------|
|-----------------|---------------|---------------|-----------------|
|-----------------|---------------|---------------|-----------------|
|-0-----0----8--7-|------0---7--6-|------0---5--3-|-------3--2------|
|-0-0-0-0-0-------|--0-0-0-0------|--0-0-0-0------|-0-0-0------0-0--|
|-0-0-0-0-0-------|--0-0-0-0------|--0-0-0-0------|-0-0-0------0-0--|
|
|   PM|   PM         PM|   PM        PM|   PM       PM--|      PM|
|-----------------|---------------|---------------|-----------------|
|-----------------|---------------|---------------|-----------------|
|-----------------|---------------|---------------|-----------------|
|-0-----0---------|------0--------|------0--------|-----------------|
|-0-0-0-0-0-10--8-|--0-0-0-0-8--7-|--0-0-0-0-7--5-|-0-0-0-5--4-0-0--|
|-0-0-0-0-0-------|--0-0-0-0------|--0-0-0-0------|-0-0-0------0-0--|


  1.
  Eb5      F5GbG5  D5   Ab5
|----------------|-----------------||
|----------------|----------------o||
|----------------|-----------------||
|-1--1-1-1-3-4-5-|-0----/6---(6)\--||
|-1--1-1-1-3-4-5-|-0----/6---(6)\-o||
|-1--1-1-1-3-4-5-|-0----/6---(6)\--||
|
|----------------|-----------------||
|----------------|----------------o||
|----------------|-----------------||
|-1--------------|-0----/6---(6)\--||
|-1--------------|-0----/6---(6)\-o||
|-1--------------|-0----/6---(6)\--||


  2.
  Eb5
  Gtrs I, II
|----------|--------||
|----------|--------||
|----------|--------||
|-1--------|-(1)----||
|-1--------|-(1)----||
|-1--------|-(1)----||


 Outro
  a Tempo Q=210
  D5
  PM--------------------------------------
|----------------------|-----------------|
|----------------------|-----------------|
|----------------------|-----------------|
|----------------------|-----------------|
|-0-0-0-0-0----0-0-0-0-|-0----0-0-0-0-0--|
|-0-0-0-0-0----0-0-0-0-|-0----0-0-0-0-0--|


 ---------------------------------------|
|----------------------|--------------------|
|----------------------|--------------------|
|----------------------|--------------------|
|----------------------|--------------------|
|-0-0-0-0-0----0-0-0-0-|-0----0-0-0-0-0-----|
|-0-0-0-0-0----0-0-0-0-|-0----0-0-0-0-0-----|


  D5
  PM-----------------------------------------------------------------|
|----------------------|-----------------|----------------------|----------*|
|----------------------|-----------------|----------------------|----------*|
|----------------------|-----------------|----------------------|----------*|
|----------------------|-----------------|----------------------|----------*|
|-0-0-0-0-0----0-0-0-0-|-0----0-0-0-0-0--|-0-0-0-0-0----0-0-0-0-|-0--------*|
|-0-0-0-0-0----0-0-0-0-|-0----0-0-0-0-0--|-0-0-0-0-0----0-0-0-0-|-0--------*|



Tablature Legend
----------------
 h   - hammer-on
 p   - pull-off
 b   - bend
 pb  - pre-bend
 r   - bend release (if no number after the r, then release immediately)
 /\  - slide into or out of (from/to "nowhere")
 s   - legato slide
 S   - shift slide
 - natural harmonic
[n]  - artificial harmonic
n(n) - tapped harmonic
 ~   - vibrato
 tr  - trill
 T   - tap
 TP  - trem. picking
 PM  - palm muting
\n/  - tremolo bar dip; n = amount to dip
 \n  - tremolo bar down
 n/  - tremolo bar up
/n\  - tremolo bar inverted dip
 =   - hold bend; also acts as connecting device for hammers/pulls
 <> - volume swell (louder/softer)
 x   - on rhythm slash represents muted slash
 o   - on rhythm slash represents single note slash
Comments