Avenged Sevenfold - I Wont See You Tonight Part 2 Chords & Tabs

 

I Wont See You Tonight Part 2 Chords & Tabs

Avenged Sevenfold Chords & Tabs

Version: 1 Type: Tab 0 ratings
1 star 2 stars 3 stars 4 stars 5 stars
comments

I Wont See You Tonight Part 2 Tab

   
Song: I Won't See You Tonight Part 2
Artist: Avenged Sevenfold
Album: Waking the Fallen
Tabbed by: Christian / silent_warrior_@hotmail.com

PM - Palm mute
/ - Slide up
\ - Slide down
^ - Bend
~ - Vibrato

Tuning: D A D G B E


Intro/Verse
|---------------------|
|---------------------|
|---------------------|
|---------------------|
|-00000---00000-00000-|
|-00000---00000-00000-|
PM-----   ----- -----


|-----------------------|-----------------------|
|-----------------------|-----------------------|
|-----------------------|-----------------------|
|-----------------------|-----------------------|
|-1--1-1/8-7--0--0-/3-5-|-1--1-1/8-7--0--0-/4-6-|
|-1--1-1/8-7--0--0-/3-5-|-1--1-1/8-7--0--0-/3-5-|


|--------------------------|-----------------------------------|
|-------15----------15-15--|----------15-----------------15-15-|
|-------14----------14-14--|----------14-----------------14-14-|
|--------------------------|-----------------------------------|
|-0-0-0-----0-0-0-0--------|-00-0-000-----0000-0-000-0-0-------|
|-0-0-0-----0-0-0-0--------|-00-0-000-----0000-0-000-0-0-------|
PM- - -     - - - -          -- - ---     ---- - --- - -


|---------------------|---------------|
|---------------------|---------------|
|---------------------|---------------|
|---------------------|---------------|
|---------------------|---------------|
|-5/12-11-10-9-7-5----|-5/12-11-10-5^-|


Fill
|--------|
|--------|
|--------|
|--------|
|-0-0-/6-|
|-0-0-/6-|

[ Tab from: http://www.guitartabs.cc/tabs/a/avenged_sevenfold/i_wont_see_you_tonight_part_2_tab.html ]
Chorus
|------------------------------------------|--------------|
|------------------------------------------|--------------|
|------------------------------------------|--------------|
|--------8-7---------7-6-------6-5-----5-4-|--------------|
|-0-0---10-9-0-0-0---9-8-0-0---8-7-0-0-7-6-|-0-0-1/5---6\-|
|-0-0-0------0-0-0-0-----0-0-0-----0-0-----|-0-0-1/5---6\-|
PM- -        - - -       - -       - -       


Verse
|-----------------------------------------------------------|
|-----------------------------------------------------------|
|-----------------------------------------------------------|
|------7-7--7777-8---------------------7-7--7777-8----------|
|-0000-5-5--5555-6--5-5/6--6\2/3--0000-5-5--5555-6--2-3-5-6-|
|-0000--------------5-5/6--6\2/3--0000--------------2-3-5-6-|
PM----      ----                  ----      ----


Cool riff
|---------------------------------|
|---------------------------------|
|---------------------------------|
|---------------------------------|
|-0-12-11-0-10-9-8-7-0-7-6-0-5----|
|-0-12-11-0-10-9-8-7-0-7-6-0-5-3~-|


|----------------------|
|----------------------|
|----------------------|
|----------------------|
|-00-00--00--0-0-00000-|
|-00-00--00--0-0-00000-|
PM-- --  --  - - -----


Solo part (this is the rhythm; not sure about this part)
|--------------------------------------------|
|--------------------------------------------|
|--------------------------------------------|
|--------------------------------------------|
|-0--000-------000-----0-0-00-0-00-2-00-3-00-|
|-0--000-7~-6~-000-5~--0-0-00-0-00-2-00-3-00-|
     ---       ---     - - --   --   --   --

|-------------------------------------------------------------|
|-------------------------------------------------------------|
|-------------------------3-3-3-3-3-3-------------------------|
|-------------------------3-3-3-3-3-3-------------------------|
|-5-5-5-5-5-5-1-1-1-1-1-1-1-1-1-1-1-1-3-3-3-3-3-3-4-4-4-4-4-4-|
|-5-5-5-5-5-5-1-1-1-1-1-1-------------3-3-3-3-3-3-4-4-4-4-4-4-|
Comments