Avenged Sevenfold - I Wont See You Tonight Part 2 Chords & Tabs

 

I Wont See You Tonight Part 2 Chords & Tabs

Avenged Sevenfold Chords & Tabs

Version: 1 Type: Bass Tab

I Wont See You Tonight Part 2 Bass Tab

   
Intro/Verse
G|--------------------|
D|--------------------|
A|--------------------|
D|00000---00000-00000-|

G|--------------------|--------------------|
D|--------------------|--------------------|
A|--------------------|--------------------|
D|1-1-1/8-7--0--0/3-5-|1-1-1/8-7--0--0/5-2-|

G|--------------|
D|--------------|
A|----5-----5-5-|
D|000---000-----|

G|-----------------|  |-------------|
D|-----------------|  |-------------|
A|-----------------|X3|-------------|
D|5/12-11-10-9-7-5-|  |5/12-11-10-5~|

Chorus 1
G|------|
D|------|
A|------|
D|00-/6-|

G|-------------------------------------------|
D|-------------------------------------------|
A|-----10-9------9-8------8-7------7-6-------|
D|00-0------00-0-----00-0-----00-0-----1-1/5-|

G|---|--------------------------------------|
D|---|--------------------------------------|
A|---|-----10-9------9-8------8-7------7-6--|
D|6/-|00-0------00-0-----00-0-----00-0------|

Verse x4
G|----------------------------------------------------|
D|----------------------------------------------------|
A|-----5-5-5555-6------------------5-5-5555-6---------|
D|0000------------5-5/6-6\2-3-0000------------2-3-5-6-|
[ Tab from: http://www.guitartabs.cc/tabs/a/avenged_sevenfold/i_wont_see_you_tonight_part_2_btab.html ]
G|--------------------------------|
D|--------------------------------|
A|--------------------------------|
D|-0-12-11-0-10-9-8-7-0-7-6-0-5-3~|

Solo Part
G|---------------------|
D|---------------------|
A|---------------------|x8
D|00-00--00--0-0-00000-|

G|---------------------------------|
D|---------------------------------|
A|---------------------------------|x4
D|0-000-7-6-000-5^-00000-02-03-000-|

Chorus 2
G|-------------------------------------------------------------|
D|-------------------------------------------------------------|
A|--------------------------111113335551111--------------------|x2
D|-555555555555-11111111111-----------------333333333-44444444-|

Verse
G|--------------|
D|--------------|
A|----5-----5-5-|
D|000---000-----|

G|-----------------|  |-------------|
D|-----------------|  |-------------|
A|-----------------|X3|-------------|
D|5/12-11-10-9-7-5-|  |5/12-11-10-5~|

Chorus 1
G|------|
D|------|
A|------|
D|00-/6-|

G|-------------------------------------------|
D|-------------------------------------------|
A|-----10-9------9-8------8-7------7-6-------|
D|00-0------00-0-----00-0-----00-0-----1-1/5-|

G|---|--------------------------------------|
D|---|--------------------------------------|
A|---|-----10-9------9-8------8-7------7-6--|
D|6/-|00-0------00-0-----00-0-----00-0------|

Outro
G|--------------------|
D|--------------------|
A|--------------------|
D|00000---00000-00000-|