Avenged Sevenfold - I Wont See You Tonight Part 1 Chords & Tabs

 

I Wont See You Tonight Part 1 Chords & Tabs

Avenged Sevenfold Chords & Tabs

Version: 2 Type: Bass Tab 0 ratings
1 star 2 stars 3 stars 4 stars 5 stars
comments

I Wont See You Tonight Part 1 Bass Tab

   
I WON'T SEE YOU TONIGHT PART 1 (Bassline)
As recorded by Avenged Sevenfold
(From the 2003 Album WAKING THE FALLEN)

Gtr I (D A D G) - 'Untitled'

 Intro
  Slowly Q=63
 4/4
  Gtr I

 Guitar Solo
 4/4
|---------------------------------|---------------------------------|
|---------------------------------|---------------------------------|
|---------------------------------|---------------------------------|
|-5-5-5-5-5-5-5-5-5-5-5-5-5-5-5-5-|-1-1-1-1-1-1-1-1-1-1-1-1-1-1-1-1-|


|---------------------------------|---------------------------------|
|---------------------------------|---------------------------------|
|---------------------------------|---------------------------------|
|-3-3-3-3-3-3-3-3-3-3-3-3-3-3-3-3-|-0-0-0-0-0-0-0-0-0-0-0-0-0-0-0-0-|


|---------------------------------|---------------------------------|
|---------------------------------|---------------------------------|
|---------------------------------|---------------------------------|
|-1-1-1-1-1-1-1-1-1-1-1-1-1-1-1-0-|-8-8-8-8-8-8-8-8-3-3-3-3-3-3-3-3-|


|---------------------------------|---------------------------------|
|---------------------------------|---------------------------------|
|---------------------------------|---------------------------------|
|-5-5-5-5-5-5-5-5-5-5-5-5-5-5-5-5-|-1-1-1-1-1-1-1-1-1-1-1-1-1-1-1-1-|


|---------------------------------|---------------------------------||
|---------------------------------|---------------------------------||
|---------------------------------|---------------------------------||
|-3-3-3-3-3-3-3-3-3-3-3-3-3-3-3-3-|-0-0-0-0-0-0-0-0-0-1-1-1-1-3-3-3-||


 Pre-Verse
  Slower Q=65
|---7-7-7-------7-7-7---|---5-5-5-------5-5-5-------|
|-5-------5-5-5-------5-|-3-------3-3-3-------3-5-3-|
|-----------------------|---------------------------|
|-----------------------|---------------------------|


|---3-3-3-------------------|------------------------|------||
|-1-------1-1-1-1-1-3-1-0-1-|-----0------1-------4---|------||
|---------------------------|---0------1---1---3---3-|------||
|---------------------------|-0------1-------4-------|-5----||


   Verse
    $
||----7-7-7-------7-7-7---|---5-5-5-------5-5-5-------|
||o-5-------5-5-5-------5-|-3-------3-3-3-------3-5-3-|
||o-----------------------|---------------------------|
||------------------------|---------------------------|


  1.
|---3-3-3-------------------|-------------------------||
|-1-------1-1-1-1-1-3-1-0-1-|-----0------1-------4---o||
|---------------------------|---0------1---1---3---3-o||
|---------------------------|-0------1-------4--------||


  2.
                                                     To Coda
|---3-3-3-------------------|---------------------------------||
|-1-------1-1-1-1-1-3-1-0-1-|---------0-0-0-0-----1-------4---||
|---------------------------|-------0-----------1---1---3---3-||
|---------------------------|-0-0-0-----------1-------4-------||


 Chorus
|-------------------------|-------------------------|
|-------------------------|-------------------------|
|-------------------------|-------------------------|
|-5-5-5-5-5-5-5-5-5-5-5-5-|-1-1-1-1-1-1-1-1-1-1-1-1-|


                     D.S. al Coda
|-------------------------|-----------||
|-------------------------|-----------||
|-------------------------|-----------||
|-8-8-8-8-8-8-8-8-8-8-8-8-|-3----4----||


   Chorus
    &
||--------------------------|-------------------------|
||o-------------------------|-------------------------|
||o-------------------------|-------------------------|
||--5-5-5-5-5-5-5-5-5-5-5-5-|-1-1-1-1-1-1-1-1-1-1-1-1-|


|-------------------------|--------------------------||
|-------------------------|-------------------------o||
|-------------------------|-------------------------o||
|-8-8-8-8-8-8-8-8-8-8-8-8-|-3-3-3-3-3-3-4-4-4-4-4-4--||


 Guitar Solo
|---------------------------------|---------------------------------|
|---------------------------------|---------------------------------|
|---------------------------------|---------------------------------|
|-5-5-5-5-5-5-5-5-5-5-5-5-5-5-5-5S|=1-1-1-1-1-1-1-1-1-1-1-1-1-1-1-1-|


|---------------------------------|---------------------------------|
|---------------------------------|---------------------------------|
|---------------------------------|---------------------------------|
|-3-3-3-3-3-3-3-3-3-3-3-3-3-3-3-3-|-0-0-0-0-0-0-0-0-0-0-0-0-0-0-0-0-|


|---------------------------------|---------------------------------|
|---------------------------------|---------------------------------|
|---------------------------------|-5-5-5-5-5-5-5-5-----------------|
|-1-1-1-1-1-1-1-1-1-1-1-1-1-1-1-1-|-----------------3-3-3-3-3-3-3-3-|


|---------------------------------|---------------------------------|
|---------------------------------|---------------------------------|
|---------------------------------|---------------------------------|
|-5-5-5-5-5-5-5-5-5-5-5-5-5-5-5-5S|=1-1-1-1-1-1-1-1-1-1-1-1-1-1-1-1-|

[ Tab from: http://www.guitartabs.cc/tabs/a/avenged_sevenfold/i_wont_see_you_tonight_part_1_btab_ver_2.html ]
|---------------------------------|---------------------------------||
|---------------------------------|---------------------------------||
|---------------------------------|---------------------------------||
|-3-3-3-3-3-3-3-3-3-3-3-3-3-3-3-3-|-0-0-0-0-0-0-0-0-0-1-1-1-1-3-3-3-||


   Chorus
||----------------------------------|---------------------------------|
||o---------------------------------|---------------------------------|
||o---------------------------------|---------------------------------|
||--5-5-5-5-5-5-5-5-5-5-5-5-5-5-5-5-|-3-3-3-3-3-3-3-3-3-3-3-3-3-3-3-3-|


|---------------------------------|----------------------------------||
|---------------------------------|---------------------------------o||
|---------------------------------|---------------------------------o||
|-1-1-1-1-1-1-1-1-1-1-1-1-1-1-1-1-|-0-0-0-0-0-0-0-0-0-1-1-1-1-3-3-3--||


 Guitar Solo
|---------------------------------|---------------------------------|
|---------------------------------|---------------------------------|
|---------------------------------|---------------------------------|
|-5-5-5-5-5-5-5-5-5-5-5-5-5-5-5-5-|-1-1-1-1-1-1-1-1-1-1-1-1-1-1-1-1-|


|---------------------------------|---------------------------------|
|---------------------------------|---------------------------------|
|---------------------------------|---------------------------------|
|-3-3-3-3-3-3-3-3-3-3-3-3-3-3-3-3-|-0-0-0-0-0-0-0-0-0-0-0-0-0-0-0-0-|


|---------------------------------|---------------------------------|
|---------------------------------|---------------------------------|
|---------------------------------|---------------------------------|
|-1-1-1-1-1-1-1-1-1-1-1-1-1-1-1-0-|-8-8-8-8-8-8-8-8-3-3-3-3-3-3-3-3-|


|---------------------------------|---------------------------------|
|---------------------------------|---------------------------------|
|---------------------------------|---------------------------------|
|-5-5-5-5-5-5-5-5-5-5-5-5-5-5-5-5S|=1-1-1-1-1-1-1-1-1-1-1-1-1-1-1-1-|


|---------------------------------|---------------------------------||
|---------------------------------|---------------------------------||
|---------------------------------|---------------------------------||
|-3-3-3-3-3-3-3-3-3-3-3-3-3-3-3-3-|-0-0-0-0-0-0-0-0-0-1-1-1-1-3-3-3-||


   Interlude
||----------------------------------|---------------------------------|
||o---------------------------------|---------------------------------|
||o---------------------------------|---------------------------------|
||--5-5-5-5-5-5-5-5-5-5-5-5-5-5-5-5-|-3-3-3-3-3-3-3-3-3-3-3-3-3-3-3-3-|


|---------------------------------|----------------------------------||
|---------------------------------|---------------------------------o||
|---------------------------------|---------------------------------o||
|-1-1-1-1-1-1-1-1-1-1-1-1-1-1-1-1-|-0-0-0-0-0-0-0-0-0-1-1-1-1-3-3-3--||


 Guitar Break
 6/8
|--------|----------|----------|--------|
|--------|----------|----------|--------|
|--------|----------|----------|--------|
|-5------|-(5)------|-(5)------|-(5)----|


|-----|
|-----|
|-----|
|-----|


                                                       4x
||--------------------------|--------------------------||
||o-------------------------|-------------------------o||
||o-------------------------|-------------------------o||
||--5-5-5-5-5-5-5-5-5-5-5-5-|-5-5-5-5-5-5-5-5-5-5-5-5--||


   Breakdown
   4/4
                                                         6x
||--------------------------|----------------------------||
||o-------------------------|---------------------------o||
||o-------------------------|---------------------------o||
||--5-5-5-5-5-5-3-3-3-3-3-3-|-1-1-1-1-1-1-3-3-3-3-3-3-3--||


   Outro
||-----------------------------|----------------------------|
||o----------------------------|----------------------------|
||o----------------------------|----------------------------|
||--5-5-5-5-5--5-5-(5)-5-5-5-5-|-8-8-8-8-8--8-8-(8)-8-8-8-8-|


                                                           6x
|----------------------------|-----------------------------||
|----------------------------|----------------------------o||
|----------------------------|----------------------------o||
|-3-3-3-3-3--3-3-(3)-3-3-3-3-|-1-1-1-1-1--1-1-(1)-1-1-1-1--||



Tablature Legend
----------------
 h   - hammer-on
 p   - pull-off
 b   - bend
 pb  - pre-bend
 r   - bend release (if no number after the r, then release immediately)
 /\  - slide into or out of (from/to "nowhere")
 s   - legato slide
 S   - shift slide
 - natural harmonic
[n]  - artificial harmonic
n(n) - tapped harmonic
 ~   - vibrato
 tr  - trill
 T   - tap
 TP  - trem. picking
 PM  - palm muting
\n/  - tremolo bar dip; n = amount to dip
 \n  - tremolo bar down
 n/  - tremolo bar up
/n\  - tremolo bar inverted dip
 =   - hold bend; also acts as connecting device for hammers/pulls
 <> - volume swell (louder/softer)
 x   - on rhythm slash represents muted slash
 o   - on rhythm slash represents single note slash

Misc Legend
-----------
 |  - bar
||  - double bar
||o - repeat start
o|| - repeat end
*|  - double bar (ending)
 :  - bar (freetime)
 $  - Segno
 &  - Coda
Tempo markers -  = BPM(8/16=s8/s16), where s8 = swing 8ths, s16 = swing 16ths
Comments