Avenged Sevenfold - Eternal Rest Chords & Tabs

 

Eternal Rest Chords & Tabs

Avenged Sevenfold Chords & Tabs

Version: 3 Type: Tab 0 ratings
1 star 2 stars 3 stars 4 stars 5 stars
comments

Eternal Rest Tab

e|15(full)15(half)15(full)---------------------------------------------------|
B|------------------------11-12-14-14(half)-12-13-15(full)-17(full)----------|
G|---------------------------------------------------------------------------|
D|---------------------------------------------------------------------------|
A|---------------------------------------------------------------------------|
E|---------------------------------------------------------------------------|

e|--------------------------------------------------------------------------|
B|18-16-15-17-15-14-16-14-13------------------------------------------------|
G|---------------------------18-16-15-17-15-14-16-14-13---------------------|
D|------------------------------------------------------15/19---------------|
A|--------------------------------------------------------------------------|
E|--------------------------------------------------------------------------|
[ Tab from: http://www.guitartabs.cc/tabs/a/avenged_sevenfold/eternal_rest_tab_ver_3.html ]
e|--------------------------------------------------------------------------|
B|--------------------------------------------------------------------------|
G|--------------------------------------------------------------------------|
D|--------------------------------------------------------------------------|
A|17-18-20-20-18-17-15-16-18-18-16-15/14(half)------------------------------|
E|--------------------------------------------------------------------------|
        (keep you finger hammered on 15 for this part)
e|--------------------------------------------------------------------------|
B|----------------------------------20(full)21(full)------------------------|
G|15-16-18-15-15-16-18-15-15-16-18------------------------------------------|
D|--------------------------------------------------------------------------|
A|--------------------------------------------------------------------------|
E|--------------------------------------------------------------------------|

e|--------------------------------------------------------------------------|
B|---------------------------17-18-20-20-18-17------------------------------|
G|------------------17-18-20-------------------20-18-17---------------------|
D|---------17-18-20-------------------------------------20-18-17------------|
A|17-18-20-------------------------------------------------------20(full)---|
E|--------------------------------------------------------------------------|
                       (not to sure about this)
e|---------------------------------------------]----------------------------|
B|---------15-17-19-19-17-15-15-17-19-17-19-21------------------------------|
G|19-17-16----------------------------------------x--2----------------------|
D|--------------------------------------------------------------------------|
A|---------------------------------------------]----------------------------|
E|--------------------------------------------------------------------------|
Comments