Avenged Sevenfold - Eternal Rest Chords & Tabs

 

Eternal Rest Chords & Tabs

Avenged Sevenfold Chords & Tabs

Version: 1 Type: Bass Tab 0 ratings
1 star 2 stars 3 stars 4 stars 5 stars
comments

Eternal Rest Bass Tab

   
Band- Avenged Sevenfold
Song- Eternal; Rest

Intro					   2x
G|-------------------------------------------|---------------------------|
D|-------------------------------------------|---------------------------|
A|-3-333-33----------------3-333-33----------|-5-555-55------------------|
D|----------133-13--133-13----------11334433-|----------3-55-35--3-55-35-|
		   2x
G|-------------------|
D|-------------------|\
A|-5-555-55----------|/ 2x
D|----------33556655-|
	 Breakdown				   4x
G|------|-------------------|------------------------|
D|------|-------------------|------------------------|
A|------|-------------------|------------------------|
D|--0~--|-00000000-00000000-|-/3-00-0/3-0/3--0/3-0/6-|

Chorus	            4x			4x
G|--------------------|--------------------------------------------------------------|
D|--------------------|-------------------|D|-------------------------------------|--|
A|--------------------|--------------------------------------------------------------|
D|-0000-000-005-3-3h5-|-0000-000-00-00-00--------------------------------------------|

Fast Riff
G|-----------------------------------------------------------------------|
D|-----------------------------------------------------------------------|
A|----------------------7080787------4--------------7080787------4----5--|
D|-000-000--0-0232-5320--------9-0000-000-0232-5320--------9-0000-0232-2-|

G|--------------------|
D|--------------------|
A|-5/8--7--7-1087-----|
D|-----5--3-------0~--|
[ Tab from: http://www.guitartabs.cc/tabs/a/avenged_sevenfold/eternal_rest_btab.html ]
Time Change
G|--------------------------------------------------------------------|
D|--------------------------------------------------------------------|
a|--------------------------------------------------------------------|
D|-777777-55555555555555-888888-7/3333333-777777-5555555555555-888888-|

Then:
G|-----------------------------------|
D|-787------787------787---8---------|
A|-----1087-----1087-----10-10-81087-|Breakdown 4x
D|-----------------------------------|
				       2x
G|---------------------------------------|
D|---------------------------------------|
A|--------------------------555444777888-|
D|-0~--4~-5~-8~--0~--3~--8~--------------|

Chorus 8x|-------------------------------------|
     |-787------787------787---8---------------|
     |-----1087-----1087-----10-10-81087-------|
     |-----------------------------------------|

Ending				     2x
G|-------------------------------------|---------------------------------|
D|-------------------------------------|---------------------------------|
A|-------------------------------------|---------------------------------|
D|-0-000-/108-878735-5-5--/1211-111214-|-0810785737-8-75-55-/1211-111214-|
				     3x
G|-------------------------------------|---------------------------------|
D|-------------------------------------|---------------------------------|
A|-------------------------------------|---------------------------------|
D|-0-000-/108-878735-5-5--/1211-111214-|-0810785737-8-75-55-/1211-111214-|

G|-------------------------------------|------|

A|-------------------------------------|------|
D|-0-000-/108-878735-5-5--/1211-111214-|--0~--|
Comments