Avenged Sevenfold - Desecrate Through Reverance Chords & Tabs

 

Desecrate Through Reverance Chords & Tabs

Avenged Sevenfold Chords & Tabs

Version: 1 Type: Bass Tab 0 ratings
1 star 2 stars 3 stars 4 stars 5 stars
comments

Desecrate Through Reverance Bass Tab

   
Band- Avenged Sevenfold
Song- Desecrate Through Reverance

Intro				  4x	 	   2x
G|----------------------------------|----------------|----------------|
D|----------------------------------|----------------|----------------|
A|----------------------------------|----------------|---/5-555-5/777-|
D|-0-2-3-5-/8--7-5-7--3-/6--2--/8-7-|-000---000-00-0-|-00-------------|

G|---------------------------------------------------------------------|
D|---------------------------------------------------------------------|
A|-7/888-887-777-7/101010-10888----------------------------5-555-5/777-|
D|------------------------------000-2^-000-2^-0-3p0-3h5-00-------------|
						2x
G|-------------------------------------------------|----------------|-----|
D|-------------------------------------------------|----------------|-----|
A|-7/888-887-----87-x12108-------------------------|----------------|-----|
D|------------00-----------000-2^-000-5^-0-5p0-5h7-|-000---000-00-0-|-0h2-|

Verse						      2x
G|------------------------------------------------------|-------------------|
D|------------------------------------------------------|-------------------|
A|------------------------------------------------------|-------------------|
D|-22-2223-222-222-2223-0-0-00-0-000-000-0-0-00-000-000-|-22-2223-22---2223-|

G|---------------------------------|---------------------|--------------------|
D|---------------------------------|---------------------|--------------------|
A|---------------------------------|---------------------|--------------------|
D|-0-0-00-0-000-000-0-0-00-000-000-|-22-2223-22-222-2223-|-0-0000-00-0--00000-|
			     2x
G|-----------------------------|
D|-----------------------------|
A|-----------------------------|
D|-00-0--0-0000-00-0-087-57-35-|
[ Tab from: http://www.guitartabs.cc/tabs/a/avenged_sevenfold/desecrate_through_reverance_btab.html ]
Chorus
G|------------------------------------------------------------------------------|
D|------------------------------------------------------------------------------|
A|------------------------------------------------------------------------------|
D|-3333-222-0-0000-8888-10101010-1010-10-12-0-0000-00-0-0-0000-00-0-0-0000-00-0-|
	   2x
G|-------------------------------|
D|-------------------------------|
A|-----------|Verse 1x | Chorus--| 2x
D|-087-57-35---------------------|

Solo
G|-----------------------------------------------------------------|
D|-----------------------------------------------------------------|
A|-----------------------------------------------------------------|
D|-3333-222-0-0000-8888-10101010-1010-1012-0000-0000-8888-10101010-|

Bridge				2x
G|--------------------------------|-----------------------------------|
D|--------------------------------|-7~--5~----------------------------|
A|----87----10878----87----108763-|-5~--3~--5~------------------------|
D|-00----00-------00----00--------|---------0~-55555555-8888-10101010-|

Outro					2x
G|-----------------------------------------|-------------------------|
D|-----------------------------------------|-------------------------|
A|-5555-3333-----------3333----------------|-------------------------|
D|-----------8888-0000------8888-3333-5555-|-0~--10~--8888-3333-8888-|
						2x
G|-------------------------------------------------|
D|-------------------------------------------------|
A|-------------------------------------------------|
D|-0000-0000-10101010-10101010-8888-8888-3333-5555-|

G|-----------------------------------------|
D|-----------------------------------------|
A|-----------------------------------------|
D|-0-0000-00-0--0-0000-00-0--0-0000-00-0-0-|
Comments