Avenged Sevenfold - Darkness Surrounding Chords & Tabs

 

Darkness Surrounding Chords & Tabs

Avenged Sevenfold Chords & Tabs

Version: 1 Type: Bass Tab 0 ratings
1 star 2 stars 3 stars 4 stars 5 stars
comments

Darkness Surrounding Bass Tab

Band- Avenged Sevenfold
Song- Darkness Surrounding

Intro x 2
G|-----------------------------------------------------------------|
D|-------------------------------4455775544------------------------|
A|-3333-3333-5555-5555-7777-7777------------77-3333-3333-5555-5555-|
D|-----------------------------------------------------------------|

G|---------------------|---|
D|---------------------|---|
A|-7777-7777-7777-7777-|-3-|
D|---------------------|---|

Verse x 8
G|----|-------------|
D|----|-------------|
A|-7\-|-------------|
D|----|-22-2h3p2-03-|

Intro x 1
Verse x 16

Verse 2 x 2
G|-----------------------------------------|
D|-----------------------------------------|
A|----------2/5\2----------------2/5\2/7\4-|
D|-222222-2-------4-5---222222-2-----------|

Breakdown
G|------------------------------------------------------------|
D|------------------------------------------------------------|
A|---1-1----11---111------------1-1----11---111---------------|
D|-2-----22----2-----2323532--2-----42----2-----2-3-2-3-5-3-2-|

G|-----------------------------------------------------------------------|
D|-----------------------------------------------------------------------|
A|----111----1-1----111------------------111----111----111---------------|
D|-22-----22-----42----2-3-2-3-5-3-2--22------------22-----2-3-2-3-5-3-2-|

break
[ Tab from: http://www.guitartabs.cc/tabs/a/avenged_sevenfold/darkness_surrounding_btab.html ]
Bridge pt 1
G|--------------------------------------------------------------------------------|
D|--------------------------------------------------------------------------------|
A|--------------------------------------------------------------------------------|
D|-02023202--02023202--02023202--02023202--02023202--02023202--02023202--0202320~-|

Bridge pt 2
G|--------------------------------------------------------------------------------|
D|--------------------------------------------------------------------------------|
A|--------------------------------------------------------------------------------|
D|-02023202--02023202--02023202--02023202--02023202--02023202------------0202320~-|

break

Breakdown pt 2 x 4
G|--------------------------------------------------------------------|
D|--------------------------------------------------------------------|
A|------------------------------------------------------------1-1-1-1-|
D|-2-223232-2-23232-2-223232-2-222-2-223232-2-23232-2-223232----------|

Interlude
G|-------------------------------|
D|-------------------------------|
A|---3/5---3---3/5---3/5---3---5-|
D|-2---------------2-------------|

Chorus x 4
G|-------------------------|
D|-------------------------|
A|---------------3-3-------|
D|-2-3-4-5-4-3-2-----2-1-0-|

Interlude pt 2
G|--------------------------------------------------------------------|
D|--------------------------------------------------------------------|
A|---3/5--4p3-635---3/5---3---5---3/5-5h6p5\3-3/5---3/5-5-5\3-3-3/5-5-|
D|-2--------------2-------------2-----------------2-------------------|

Chorus x 4

x 4
G|------------------------|
D|----------2-5-----3-5---|
A|--------3-----3-4-----4-|
D|-22-2-------------------|
Comments