Avenged Sevenfold - Clairvoyant Disease Chords & Tabs

 

Clairvoyant Disease Chords & Tabs

Avenged Sevenfold Chords & Tabs

Version: 2 Type: Tab 0 ratings
1 star 2 stars 3 stars 4 stars 5 stars
comments

Clairvoyant Disease Tab

   
h= hammer on
p= pull off
/= slide down
b= bend
( )= pick while bending


this comes about 2:03 into the song
e:-------------------------------|
b:-----5-6-5h6p5------/10-8------|
g:-7-7-----------7----------9----|
D:--7-------------7-8------------|
A:-------------------------------| x2
E:-------------------------------|

2:10 into the song
Lyrics during this part:while you sit there and do nothing
e:----------------------------------------------------:
b:-11-10-8----------8-10-8----------------------------:
g:---------10-9--10--------10-9-7--9-10-12-10-9-7-6-9-:
D:----------------------------------------------------:
A:----------------------------------------------------:
E:----------------------------------------------------:


This part comes again at about 2:15 into the song
e:-------------------------------|
b:-----5-6-5h6p5------/10-8------|
g:-7-7-----------7----------9----|
D:--7-------------7-8------------|
A:-------------------------------| x2
E:-------------------------------|
[ Tab from: http://www.guitartabs.cc/tabs/a/avenged_sevenfold/clairvoyant_disease_tab_ver_2.html ]
this part comes about 2:22 into the songs
Lyrics during this part: your content with doing nothing
e:----------------------------------------------------:
b:-11-10-8----------8-10-8----------------------------:
g:---------10-9--10--------10-9-7--9-10-12-10-9-7-6-9-:
D:----------------------------------------------------:
A:----------------------------------------------------:
E:----------------------------------------------------:


guitar 3 (with Wah)
e:------------------------------------------------------------------------|
b:-10b(10)-10b-10---------------------------------------------------------|
g:-----------------12-10-9-9h10p9--------9-12-12b--9-10-9-----------------|
D:--------------------------------10--10------------------------10-10/12--|
A:------------------------------------------------------------------------|
E:------------------------------------------------------------------------|

e:-----------------------------------------------------------------13-12-10--|
b:-------------------------------------------13-11-10----------10------------|
g:---------------------------------7-9-10-9-----------12-10-12---------------|
D:-12\10-10\8-8--8/10-10/12-10--10-------------------------------------------|
A:---------------------------------------------------------------------------|
E:---------------------------------------------------------------------------|

e:----------10--10\8-8\6-6---------------------------------------------------|
b:-13-11-10------------------------------------------------------------------|
g:---------------------------------------------------------------------------|
D:---------------------------------------------------------------------------|
A:---------------------------------------------------------------------------|
E:---------------------------------------------------------------------------|
Comments