Avenged Sevenfold - Clairvoyant Disease Chords & Tabs

 

Clairvoyant Disease Chords & Tabs

Avenged Sevenfold Chords & Tabs

Version: 1 Type: Bass Tab 0 ratings
1 star 2 stars 3 stars 4 stars 5 stars
comments

Clairvoyant Disease Bass Tab

   
CLAIRVOYANT DISEASE (Bassline)
As recorded by Avenged Sevenfold
(From the 2003 Album WAKING THE FALLEN)

Gtr I (D A D G)

 Intro
  Slowly Q=69
 4/4
  Gtr I
|-------------|---------------|-------------|--------------------||
|-------------|---------------|-------------|--------------------||
|-------/5----|-1---3-1-------|-------/5----|-1---3-1------------||
|-0---0-------|---------5--7--|-0---0-------|---------5--7-7-7---||


   Verse
||--------------|------------------||
||o-----0-3-2-0-|-----------------o||
||o-------------|-1---0h1-1-3-1-0-o||
||--0-----------|------------------||


|-------------|-------------------|-------------|-------------------------||
|-----0-3-2-0-|---------3-2-(2)-3-|-----0-3-2---|-------------------------||
|-------------|-1---0h1-1---------|-----------0-|-1---0h1-1-1-1-1-1-1-1-1-||
|-0-----------|-------------------|-0-----------|-------------------------||


   Chorus
    $                                          To Coda
                                                          4x
||----------------------------|---------------------------||
||o---------------------------|--------------------------o||
||o-----------7\-----------8\-|-----1-----1--------------o||
||--0-0-0-0-0----0-0-0-0-0----|-0-0---0-0---0-0-6-0-0-7\--||


 Verse
|-------------|-----------------|---------------|----------------------|
|-----0-3-2-0-|-----------------|-----0-3-2-0h2-|----------------------|
|-------------|-1---0h1-1-3-1-0-|---------------|-1--1-0h1-0h1-3-1-0---|
|-0-----------|-----------------|-0-------------|----------------------|


|---------------|-----------------------|
|-----0-3-2-0h2-|-----------3-2-(2)-3s5-|
|---------------|-1-1-1-0h1-------------|
|-0-------------|-----------------------|


                            D.S. al Coda
|---------------|---------------------------||
|-----0-3-2-0h2-|---------------------------||
|---------------|-1---0h1-1-1-1-1-1-1-1-1---||
|-0-------------|---------------------------||


    &
||----------------------------|---------------------------||
||o---------------------------|--------------------------o||
||o-----------7\-----------8\-|-----1-----1--------------o||
||--0-0-0-0-0----0-0-0-0-0----|-0-0---0-0---0-0-6-0-0-7\--||


 Interlude
  Faster Q=142
|------------------|-----------------|------------------|-----------------|
|------------------|-----------------|------------------|-----------------|
|------------------|-----------------|------------------|-----------------|
|-0-0--0-(0)-0-0-0-|-8-8-8-8-8-8-8-8-|-0-0--0-(0)-0-0-0-|-8-8-8-8-8-8-8-8-|


|------------------|------------------|------------------|
|------------------|------------------|---------2-(2)S5--|
|------------------|------------------|------------------|
|-2-2--2-(2)-2-0-2-|-3-3--3-(3)-3-3-3-|-5-5-5-0----------|


|------------------|-----------------------------|
|------------------|-----------------------------|
|------------------|-----------------------------|
|-0-0--0-(0)-0-0-0-|-8-8-8-8-8-8-8-8-8-8-8-8-8-8-|


|------------------|-----------------------------|
|------------------|-----------------------------|
|------------------|-----------------------------|
|-0-0--0-(0)-0-0-0-|-8-8-8-8-8-8-8-8-8-8-8-8-8-8-|


|------------------|------------------|------------------|
|------------------|------------------|---------2-(2)S5--|
|------------------|------------------|------------------|
|-2-2--2-(2)-2-0-2-|-3-3--3-(3)-3-3-3-|-5-5-5-0----------|


|----------------|-----------------||
|-0--0-0-0-0-0-0-|-0-0-0-0-0-0-0-0-||
|----------------|-----------------||
|----------------|-----------------||


   Guitar Solo
||------------------|-----------------|
||o-----------------|-----------------|
||o-----------------|-----------------|
||--8-8-8-8-8-8-8-8-|-8-8-8-8-8-8-8-8-|


|-------------------------|--------------------------|
|-------------------------|--------------------------|
|-------------------------|--------------------------|
|-10-10-10-10-10-10-10-10-|-10-10-10-10-10-10-10-10--|


|-----------------|-----------------|-----------------|------------------||
|-----------------|-----------------|-----------------|-----------------o||
|-----------------|-----------------|-----------------|-----------------o||
|-3-3-3-3-3-3-3-3-|-2-2-2-2-2-2-2-2-|-0-0-0-0-0-0-0-0-|-0-0-0-0-0-0-0-0--||

[ Tab from: http://www.guitartabs.cc/tabs/a/avenged_sevenfold/clairvoyant_disease_btab.html ]
 Verse
|-----------------|-----------------|
|-----------------|-----------------|
|-----------------|-----------------|
|-8-8-8-8-8-8-8-8-|-8-8-8-8-8-8-8-8-|


|-------------------------|-------------------------|
|-------------------------|-------------------------|
|-------------------------|-------------------------|
|-10-10-10-10-10-10-10-10-|-10-10-10-10-10-10-10-10-|


|-----------------|-----------------|-----------------|-----------------|
|-----------------|-----------------|-----------------|-----------------|
|-----------------|-----------------|-----------------|-----------------|
|-3-3-3-3-3-3-3-3-|-2-2-2-2-2-2-2-2-|-0-0-0-0-0-0-0-0-|-0-0-0-0-0-0-0-0-|


|-----------------|-----------------|
|-----------------|-----------------|
|-----------------|-----------------|
|-8-8-8-8-8-8-8-8-|-8-8-8-8-8-8-8-8-|


|-------------------------|-------------------------|
|-------------------------|-------------------------|
|-------------------------|-------------------------|
|-10-10-10-10-10-10-10-10-|-10-10-10-10-10-10-10-10-|


|-------------------------|-----------------|
|-------------------------|-----------------|
|-------------------------|-----------------|
|-12-12-12-12-12-12-12-12-|-2-2-2-2-2-2-2-2-|


|-----------------|-----------------|
|-----------------|-----------------|
|-----------------|-----------------|
|-3-3-3-3-3-3-3-3-|-3-3-3-3-3-3-3-3-|


|-----------------|-----------------|
|-----------------|-----------------|
|-----------------|-----------------|
|-5-5-5-5-5-5-5-5-|-5-5-5-5-5-5-5-5-|


|-------------------------|-------------------------|
|-------------------------|-------------------------|
|-------------------------|-------------------------|
|-10-10-10-10-10-10-10-10-|-10-10-10-10-10-10-10-10-|


|-------------------------|-----------------|
|-------------------------|-----------------|
|-------------------------|-----------------|
|-12-12-12-12-12-12-12-12-|-2-2-2-2-2-2-2-2-|


|-----------------|-----------------||
|-----------------|-----------------||
|-----------------|-----------------||
|-3-3-3-3-3-3-3-3-|-3-3-3-3-3-3-3-3-||


   Chorus
    a Tempo Q=69
                                                          4x
||----------------------------|---------------------------||
||o---------------------------|--------------------------o||
||o-----------7\-----------8\-|-----1-----1--------------o||
||--0-0-0-0-0----0-0-0-0-0----|-0-0---0-0---0-0-6-0-0-7\--||


 Breakdown
|--------------------------|--------------------------|
|--------------------------|--------------------------|
|--------------------------|--------------------------|
|-0-0-0-0-0--0-0-0-0-0-0---|-0-0-0-0-0--0-0-0-0-0-0---|


|--------------------------|-----------------------------||
|--------------------------|-----------------------------||
|--------------------------|-----------------------------||
|-0-0-0-0-0--0-0-0-0-0-0---|-0-0-0-0-0----0-0--0-0-0-0-0-||


 Outro
|----------|------------|------------|------------|--------|
|----------|------------|------------|------------|--------|
|----------|------------|------------|------------|--------|
|-0--------|-(0)--------|-(0)--------|-(0)--------|-(0)----|


|-----------|------------|----------------|--------------*|
|-----------|------------|----------------|--------------*|
|------5----|-1----1-3-1-|------5---5s7p5-|-1---0-1-1----*|
|-0---------|------------|-0--------------|--------------*|



Tablature Legend
----------------
 h   - hammer-on
 p   - pull-off
 b   - bend
 pb  - pre-bend
 r   - bend release (if no number after the r, then release immediately)
 /\  - slide into or out of (from/to "nowhere")
 s   - legato slide
 S   - shift slide
 - natural harmonic
[n]  - artificial harmonic
n(n) - tapped harmonic
 ~   - vibrato
 tr  - trill
 T   - tap
 TP  - trem. picking
 PM  - palm muting
\n/  - tremolo bar dip; n = amount to dip
 \n  - tremolo bar down
 n/  - tremolo bar up
/n\  - tremolo bar inverted dip
 =   - hold bend; also acts as connecting device for hammers/pulls
 <> - volume swell (louder/softer)
 x   - on rhythm slash represents muted slash
 o   - on rhythm slash represents single note slash

Misc Legend
-----------
 |  - bar
||  - double bar
||o - repeat start
o|| - repeat end
*|  - double bar (ending)
 :  - bar (freetime)
 $  - Segno
 &  - Coda
Tempo markers -  = BPM(8/16=s8/s16), where s8 = swing 8ths, s16 = swing 16ths
Comments