Avenged Sevenfold - Carry On Chords & Tabs

 

Avenged Sevenfold Chords & Tabs

Version: 3 Type: Tab 0 ratings
1 star 2 stars 3 stars 4 stars 5 stars
comments

Carry On Tab

   
BY:GAZ AFRON...
E-MAIL:gaz.af2@gmail.com



  intro riff lead

e|-------------------------------------------12-13-13----15-17-17~-|
b|------------------8---/13--8--10~----15--------------------------|
g|---7~--10-9-10~--------------------------------------------------|
d|-----------------------------------------------------------------|
a|-----------------------------------------------------------------|
D|-----------------------------------------------------------------|

  Intro Rhythm

e|----------------------------------------------------|
b|----------------------------------------------------|
g|------------------------------------------------2~--|
d|---------------5-------------3----3-3-----------2~--|
a|--0--0-2-3-----3----3-2-0----1----1-1--3----3-3-0~--|
D|--0--0-2-3----------3-2-0--------------3----3-3-----|

 intro cont.

e|------------------------------------|
b|------------------------------------|
g|------------------------------------|
d|------------------------------------| 2 times
a|--0----------------------------2-3--|
D|--0-00000000000000000000000000-2-3--|
       P.M ---------------------|

  
   1st solo


e|--17-13----------13-16-13----------13-15-13----------13-12--|
b|--------15----15----------15----15----------15----14--------|
g|-----------14----------------14----------------14-----------|
d|------------------------------------------------------------|
A|------------------------------------------------------------|
D|------------------------------------------------------------|

e|--13-10----------10-12-10----------10-----------------------|
b|--------10----10----------10----10----13-10----------10-----|
g|-----------10----------------10-------------10----10----13~-|
d|-----------------------------------------------12-----------|
a|------------------------------------------------------------|
D|------------------------------------------------------------|

e|--------------13-16-17-13----------------------------------|
b|-----------15-------------15----17-15----15-14-------------|
g|--------14-------------------14-------14-------14-17-14----|
d|-----15-------------------------------------------------15-|
a|--17-------------------------------------------------------|
D|-----------------------------------------------------------|


e|-----------------------------------15-17-22~~~|
b|--------------------------14-15-18------------|
g|-----------------14-15-17---------------------|
d|--------14-15-17------------------------------|
a|--15-17---------------------------------------|
D|----------------------------------------------|

  Verse

e|-------------------------------------------------------|
b|-------------------------------------------------------|
g|-------------------------------------------------------|
d|-----------------------------------------0-------------| x2
a|--2--------2----2----2-2--------2--4--5--0-----0--5--0-|
D|--2-222222-2--2-2--2-2-2-222222-2--4--5--0-----0--5--0-|
      p.m--|   p.m  p.m    p.m--|


e|----------------------------------------9-10-13--|
b|--10~--10h11p10-9~--8~-----------7-9-10----------|
g|--------------------------7-9-10-----------------|
d|-------------------------------------------------|
a|-------------------------------------------------|
D|-------------------------------------------------|

  Chorus (left)

e|--------------15-17-12~---13----15-17-18~---17-15-17-13---15-17~-------------|
b|--15~---18~---------------------------------------------------------14--15---|
g|-----------------------------------------------------------------------------|
d|-----------------------------------------------------------------------------|
a|-----------------------------------------------------------------------------|
D|-----------------------------------------------------------------------------|


e|------------17-19-------------17-19-20-------20-19----------19~--|
b|--17~--20---------19~---20-------------20----------20----20------|
g|------------------------------------------21----------19---------|
d|-----------------------------------------------------------------|
a|-----------------------------------------------------------------|
D|-----------------------------------------------------------------|

  Chorus (right)

e|--------17~---18-20-15~---17-----18-20-22~---20-18-20-17---18-21~-------------|
b|--18~---------------------------------------------------------------17--18----|
g|------------------------------------------------------------------------------|
d|------------------------------------------------------------------------------|
a|------------------------------------------------------------------------------|
D|------------------------------------------------------------------------------|


e|--------19~---20-22-17~---19~---20-22-24-20----24-22-19----19-23--|
b|--20~---------------------------------------20----------20--------|
g|------------------------------------------------------------------|
d|------------------------------------------------------------------|
a|------------------------------------------------------------------|
D|------------------------------------------------------------------|

   Duel Solo (tapping)

e|-12-7-3-7-12-7-3-7-12-7-3-7-12-7-3-7-13-10-5-10-13-10-5-10-13-10-5-10-13-10-5-10--|
b|----------------------------------------------------------------------------------|
g|----------------------------------------------------------------------------------|
d|----------------------------------------------------------------------------------|
a|----------------------------------------------------------------------------------|
D|----------------------------------------------------------------------------------|

e|-15-10-7-10-15-10-7-10-15-10-7-10-15-10-7-10-12-8-3-8-12-8-3-8-12-8-3-8-12-8-3-8--|
b|----------------------------------------------------------------------------------|
g|----------------------------------------------------------------------------------|
d|----------------------------------------------------------------------------------|
a|----------------------------------------------------------------------------------|
D|----------------------------------------------------------------------------------|
[ Tab from: http://www.guitartabs.cc/tabs/a/avenged_sevenfold/carry_on_tab_ver_3.html ]
e|-12-7-3-7-12-7-3-7-12-7-3-7-12-7-3-7-13-10-5-10-13-10-5-10-13-10-5-10-13-10-5-10--|
b|----------------------------------------------------------------------------------|
g|----------------------------------------------------------------------------------|
d|----------------------------------------------------------------------------------|
a|----------------------------------------------------------------------------------|
D|----------------------------------------------------------------------------------|

e|-10-7-3-7-10-7-3-7-10-7-3-7-10-7-3-7-14-10-7-10-12-8-5-8-12-8-5-8-12-8-5-8-12-8-5-8-|
b|------------------------------------------------------------------------------------|
g|------------------------------------------------------------------------------------|
d|------------------------------------------------------------------------------------|
a|------------------------------------------------------------------------------------|
D|------------------------------------------------------------------------------------|


e|------------------------------------------------------------------------------------|
b|-13-10-15-10-13-10-15-10-13-10-15-10-13-10-15-10-12-8-5-8-12-8-5-8-12-8-5-8-12-8-5-8|
g|------------------------------------------------------------------------------------|
d|------------------------------------------------------------------------------------|
a|------------------------------------------------------------------------------------|
D|------------------------------------------------------------------------------------|

e|-------------------------------------------------------------------------|
b|-12-7-4-7-12-7-4-7-12-7-4-7-12-7-4-7-12-8-5-8-12-8-5-8-10-7-3-7-10-7-3-7-|
g|-------------------------------------------------------------------------|
d|-------------------------------------------------------------------------|
a|-------------------------------------------------------------------------|
D|-------------------------------------------------------------------------|

e|-------------------------------------------------------------------|
b|-8-5-1-5-8-5-1-5-8-5-1-5-8-5-1-5-10-7-3-7-10-7-3-7-8-5-1-5-7-4-0-4-|
g|-------------------------------------------------------------------|
d|-------------------------------------------------------------------|
a|-------------------------------------------------------------------|
D|-------------------------------------------------------------------|

e|-------------------------------------------------------------------------12--|
b|-10-7-3-7-10-7-3-7-10-7-3-7-10-7-3-7-12-8-5-8-12-8-5-8-12-7-4-7-12-7-4-7-----|
g|-----------------------------------------------------------------------------|
d|-----------------------------------------------------------------------------|
a|-----------------------------------------------------------------------------|
D|-----------------------------------------------------------------------------|

 Drum solo and guitar solo

e|---------------------------|
b|---------------------------|
g|---------------------------|
d|--4-5-2----4-5-2----4-5-2--|
a|--4-5-2----4-5-2----4-5-2--|
D|--4-5-2----4-5-2----4-5-2--|

e|-----------17----------15----------13-------------------------------------------------15----15-17|
b|--------15----15----15----15----15----15----15-17-15----17-15-------------------15-------15------|
g|-----14----------14----------14----------14----------14-------14-------------14----14------------|
d|--15-------------------------------------------------------------15----14-15---------------------|
a|--------------------------------------------------------------------17---------------------------|
D|-------------------------------------------------------------------------------------------------|

e|-----------17----------15----------13------------------------------------15-12----17-13----17-22-|
b|--------15----15----15----15----15----15----15-17-15----17-15----18-17---------13-------15-------|
g|-----14----------14----------14----------14----------14-------14------14-------------------------|
d|--15---------------------------------------------------------------------------------------------|
a|-------------------------------------------------------------------------------------------------|
D|-------------------------------------------------------------------------------------------------|

e|-171717171717\13131313/151515151515\12121212/131313131313\10101010/121212121212-|
b|--------------------------------------------------------------------------------|
g|--------------------------------------------------------------------------------|
d|--------------------------------------------------------------------------------|
a|--------------------------------------------------------------------------------|
D|--------------------------------------------------------------------------------|
                                                                     
                                                                   |
e|-----------17----------15----------13----------------------------|
b|--------15----15----15----15----15----15----15-17-15----17-15----|
g|-----14----------14----------14----------14----------14-------14-|
d|--15-------------------------------------------------------------|
a|-----------------------------------------------------------------|
D|-----------------------------------------------------------------|

  (Fast picking)
-12-13-12-10-15-17-15-13-17-18-17-15-19-20-19-17-20b22r20|
---------------------------------------------------------|
---------------------------------------------------------|
---------------------------------------------------------|
---------------------------------------------------------|
---------------------------------------------------------|

  Outro

e|-------------------------------------------------------|
b|--13~--13-13-13--12--10--8---10--12--10~---------------|
g|-------------------------------------------/11--9--7---|
d|-------------------------------------------------------|
a|-------------------------------------------------------|
D|-------------------------------------------------------|

e|----------------------------------------- -------|
b|--13~--13-13-13--12--10--8---10--12--10~--15~~~--|
g|-------------------------------------------------|
d|-------------------------------------------------|
a|-------------------------------------------------|
D|-------------------------------------------------|


Legend: 

P.m = palm mute
~ = vibrato
/ = slide up
\ = slide down
b = bend
r = release bend
Comments