Avenged Sevenfold - Burn It Down Chords & Tabs

 

Burn It Down Chords & Tabs

Avenged Sevenfold Chords & Tabs

Version: 4 Type: Tab 0 ratings
1 star 2 stars 3 stars 4 stars 5 stars
comments

Burn It Down Tab

-------------------------------------------------------------------------------
			  Burn it Down - Avenged Sevenfold
-------------------------------------------------------------------------------
Tabbed by: Michael Craver
Tabbed:7/16/05 7:12 pm

Tuning:DADGBe

Synyster (Guitar 1, Right Speaker)
e|12-8-12-10-7-10-12--8-12-13-12--13-12-8-12-10-7-10-12--8-12-13-12--13------|
B|--8-------8-------10----------10-----8-------8-------10----------10--------|
G|---------------------------------------------------------------------------|
D|---------------------------------------------------------------------------|
A|---------------------------------------------------------------------------|
E|---------------------------------------------------------------------------|
[ Tab from: http://www.guitartabs.cc/tabs/a/avenged_sevenfold/burn_it_down_tab_ver_4.html ]
e|8-5-8-10--13-10-12--8-12-13--10--------------------------------------------|
B|-5------12--------10-------12----------------------------------------------|
G|---------------------------------------------------------------------------|
D|---------------------------------------------------------------------------|
A|---------------------------------------------------------------------------|
E|---------------------------------------------------------------------------|

Zacky (Guitar 2, Left Speaker)
e|8-5-8-7----7-8---5-8-10-7-10-8--5-8-7-----7-8---5-8-10-7-10----------------|
B|-5-----5-8-----5---------8----5-------5-8-----5---------8------------------|
G|---------------------------------------------------------------------------|
D|---------------------------------------------------------------------------|
A|---------------------------------------------------------------------------|
E|---------------------------------------------------------------------------|

e|5-5-7-10-7-8---------------------------------------------------------------|
B|-1---8---------------------------------------------------------------------|
G|---------------------------------------------------------------------------|
D|---------------------------------------------------------------------------|
A|---------------------------------------------------------------------------|
E|---------------------------------------------------------------------------|

this is all I have, please help!
Comments