Avenged Sevenfold - Burn It Down Chords & Tabs

 

Burn It Down Chords & Tabs

Avenged Sevenfold Chords & Tabs

Version: 2 Type: Tab 0 ratings
1 star 2 stars 3 stars 4 stars 5 stars
comments

Burn It Down Tab

   
-------------------------------------------------------------------------------
			     Burn it down - Avenged Sevenfold
-------------------------------------------------------------------------------
TTabbed by: Doug (blinkrock)
Email: none

TTuning: DADGBe

e|---------------------------------------------------------------------------|
B|---------------------------------------------------------------------------|
G|---------------------------------------------------------------------------|
D|-0--0-0-0--0-0--0-0--------------------------------------------------------|
A|-0--0-0-0--0-0--0-0----(x8)------------------------------------------------|
D|-0--0-0-0--0-0--0-0--------------------------------------------------------|
[ Tab from: http://www.guitartabs.cc/tabs/a/avenged_sevenfold/burn_it_down_tab_ver_2.html ]
e|-12-----12-10----10-12----12-13----13-12----12-10----10-12----12-13----13--|
B|---13--------12-------13-------15-------13-------12-------13-------15------|
G|-----14--------12-------14-------14-------14-------12-------14-------14----|
D|---------------------------------------------------------------------------|
A|---------------------------------------------------------------------------|
D|---------------------------------------------------------------------------|

e|-8----8-10----10-12----12-13----13-15----15-13----13-12------12~~~~~~~~----|
B|--10------12-------13-------15-------17-------15-------13--13--------------|
G|----10------12-------14-------14-------17-------14-------14----------------|
D|---------------------------------------------------------------------------|
A|---------------------------------------------------------------------------|
D|---------------------------------------------------------------------------|

Enjoy. www.ultimate-guitar.com is the best tab site on the net.


| /  slide up
| \  slide down
| h  hammer-on
| p  pull-off
| ~  vibrato
| +  harmonic
| x  Mute note
===============================================================================
Comments