Avenged Sevenfold - Burn It Down Chords & Tabs

 

Burn It Down Chords & Tabs

Avenged Sevenfold Chords & Tabs

Version: 1 Type: Bass Tab 0 ratings
1 star 2 stars 3 stars 4 stars 5 stars
comments

Burn It Down Bass Tab

   
Band- Avenged Sevenfold
Song- Burn It Down

ntro
G|-------------|
D|-------------|
A|-------------|
D|-00-0-0-0-00-| x8

intro 2
G|---------------------|
D|---------------------|
A|-3333----------------|
D|------5555-3333-5555-| x2

G|-----------------------------------------|
D|--------------------------2222-----------|
A|-----------0000-2222-3333------0000------|
D|-3333-5555--------------------------5555-|

verse
G|--------------------------/--------------------------|
D|-------------------------/---------------------------|
A|-00-11-00-33-00-11-0000-/x3---00-11-00-33-00-11-00---|
D|-----------------------/--------------------------53-|

prechorus
G|--------------------------------------------|
D|--------------------------------------------|
A|-5555-4444-1111-444444----------------------|
D|-----------------------0000~0000~0000~0000~-| x2

chorus
G|----------------------------|
D|----------------------------|
A|-5555-3333-1111111131013101-|
D|----------------------------|

G|--------------------------------|
D|--------------------------------|
A|-5555-3333-11111111111----------|
D|-----------------------00000000-|

G|----------------------------|
D|----------------------------|
A|-5555-3333-1111111131013101-|
D|----------------------------|

G|-----------------------|
D|-----------------------|
A|-5555-3333-11111111111-|
D|-----------------------|

bridge
G|----------------|
D|----------------|
A|----------------|
D|-000000-05~-08~-| x4

**play intro 2**
**play verse**
**play prechorus** x2
[ Tab from: http://www.guitartabs.cc/tabs/a/avenged_sevenfold/burn_it_down_btab.html ]
chorus 2
G|----------------------------|
D|----------------------------|
A|-5555-3333-1111111131013101-|
D|----------------------------|

G|-----------------------------|
D|------2222-3333-5555---------|
A|-5555----------------0000000-|
D|-----------------------------|

G|----------------------------|
D|----------------------------|
A|-5555-3333-1111111131013101-|
D|----------------------------|

G|---------------------------------|
D|------2222-3333-5555-------------|
A|-5555---------------------3---1~-|
D|---------------------00-0---0----|

bridge 2
G|---------------------|
D|---------------------|
A|---------------------|
D|-0000-0000-0000-3/8~-|

G|----------------|
D|----------------|
A|----------------|
E|-0000-0000-0000-| x2

G|-----------------|
D|-----------------|
A|-----------------|
D|-00000-0-5~-0-8~-| x4

verse 2
G|-------------------------------------------|
D|---------------------------2222------------|
A|-----------0000-2222-3333-------0000-------|
D|-3333-5555----------------------------5555-| x3

G|--------------------------------|
D|---------------------------2222-|
A|-----------0000-2222-3333-------|
D|-3333-5555----------------------|

**play verse**  (guitar solo)

and then
G|-------------------------|
D|-------------------------|
A|-5555-4444-11111-4444444-|
D|-------------------------|

**play chorus 2**

outro
G|--------------------------------------------|
D|--------------------------------------------|
A|--------------000000-1-1-1------------------|
D|-555555-3-3-3--------------555555-3-3-3--0~-|

G|----------------------------------------|
D|----------------------------------------|
A|------------0000-1111--------------0-1~-|
D|-5555-3333-------------7777-5555-5------|
Comments