Avenged Sevenfold - Betrayed Chords & Tabs

 

Betrayed Chords & Tabs

Avenged Sevenfold Chords & Tabs

Version: 5 Type: Tab 0 ratings
1 star 2 stars 3 stars 4 stars 5 stars
comments

Betrayed Tab

   
Tuning - Dropped D (D A D G B E)

Legend:
---------------
h - Hammer On  |
p - Pull Off   |
/ - Slide Up   |
\ - Slide Down |
PM - Palm Mute |
~ - Vibrato    |
---------------

Intro Riff   
      PM  PM  PM                PM|             PM|   PM        ~~
||----------------------------------------------------------------|
||o---------------------------------------------------------------|
||----------------------------------------------------------------|
||----------------------------------3---3/7\3-0-----2---5-3-2-0---|
||o-----6---5---5h6p5h6p5h6p5h6---5---5-----------4---4---------4-|
||--5-8---8---8-----------------3---------------2-----------------|

[ Tab from: http://www.guitartabs.cc/tabs/a/avenged_sevenfold/betrayed_tab_ver_5.html ]
  PM|        PM
|----------------------||
|---------------------o||
|----------------------||
|--------3-2-----------||
|-----3--------5-3----o||x2
|-0-2--------3---------||



Verse
|------------------------------------------------------------|
|------------------------------------------------------------|
|------------------------------------------------------------|
|-0-0--2--3--8---8-8-8-8-8-8-8-5-5--3--2-2--2-2-2-2-2-2-2----|
|-0-0--2--3--8---8-8-8-8-8-8-8-5-5--3--3-3--3-3-3-3-3-3-3----|
|-0-0--2--3--8---8-8-8-8-8-8-8-5-5--3--2-2--2-2-2-2-2-2-2----|


|------------------------------------------------------------|
|------------------------------------------------------------|
|------------------------------------------------------------|
|-0-0--2--3-3---3-3-3-3-3-3-3-5--5-3--2-2---2-2-2-2-2-2-2----|
|-0-0--2--3-3---3-3-3-3-3-3-3-5--5-3--3-3---3-3-3-3-3-3-3----|
|-0-0--2--3-3---3-3-3-3-3-3-3-5--5-3--2-2---2-2-2-2-2-2-2----|
Comments