Avenged Sevenfold - Beast And The Harlot Chords & Tabs

 

Beast And The Harlot Chords & Tabs

Avenged Sevenfold Chords & Tabs

Version: 2 Type: Tab 0 ratings
1 star 2 stars 3 stars 4 stars 5 stars
comments

Beast And The Harlot Tab

   
hey! i figured this out by ear so i think its right.

~ - vibrate

^^^ - bend slowly

e|-----------------------------------------------------------------------|
b|--/7~~--7-6-7-9-10~~---6~~--6-5-6-6/8-6-6~~--6-5-6-8-6-6~~--5-6-8-9~~--|
g|---------------------9-------------------------------------------------|
d|-----------------------------------------------------------------------|
a|-----------------------------------------------------------------------|
e|-----------------------------------------------------------------------|

e|-----------------------------------------------------------------------|
b|--9~~--11~~--9-11-13-14~~14~~--16^^^-----------------------------------|
g|-----------------------------------------------------------------------|
d|-----------------------------------------------------------------------|
a|-----------------------------------------------------------------------|
e|-----------------------------------------------0~~~~~~~~~--------------|

Guitar 1:
[ Tab from: http://www.guitartabs.cc/tabs/a/avenged_sevenfold/beast_and_the_harlot_tab_ver_2.html ]
e|-----------------------------------------------------------------------|
b|-----------------------------------------------------------------------|
g|-----------------------------------------------------------------------|
d|-----------------------------------------------------------------------|
a|-----------------------------------------------------------------------|
e|-0-0-0-0-0-0-0-0-0-0-0-0-0-0-0-0-0-0-0-0-0-0-0-0-0-0-0-0-0-0-0-0-0-0-0-|

Guitar 2:

e|-------------------|
b|--6--8--9--8--6~~--|
g|-------------------|
d|-------------------|
a|-------------------|
e|-------------------|

e|--------------------------------------------------------------|
b|--------------------------------------------------------------|
g|--------------------------------------------------------------|
d|-0-0-0-3-0-0-0-5-0-0-0-6-0-0-0-5-0-0-0-3/5-0-0-0-3-0-0-0-5/6--|
a|-0-0-0-3-0-0-0-5-0-0-0-6-0-0-0-5-0-0-0-3/5-0-0-0-3-0-0-0-5/6--|
e|-0-0-0-3-0-0-0-5-0-0-0-6-0-0-0-5-0-0-0-3/5-0-0-0-3-0-0-0-5/6--|

e|--------------------|
b|--------------------|
g|--------------------|
d|-0-0-0-3-0-0-0-5/6--|
a|-0-0-0-3-0-0-0-5/6--|
e|-0-0-0-3-0-0-0-5/6--|

Ands thats pretty much all i got!  e-mail me with comments!  pad_is_no_one@hotmail.com

                             thanks!
Comments