Avenged Sevenfold - Beast And The Harlot Chords & Tabs

 

Beast And The Harlot Chords & Tabs

Avenged Sevenfold Chords & Tabs

Version: 1 Type: Bass Tab 0 ratings
1 star 2 stars 3 stars 4 stars 5 stars
comments

Beast And The Harlot Bass Tab

   
-------------------------------------------------------------------------------
			     Beast and the Harlot - Avenged Sevenfold 
---------------------------------------------------------------------------

Tabbed By : imessyou
e-mail: theblochead@hotmail.co.uk

Tuning: drop D

G|-----------------------------------------------------------|
D|-----------------------------------------------------------|
A|-9-----5-----4----3-----8----4-----------------------------|
D|----------------------------------8-----7-----0-(let ring)-|

Verse
G|-------------------------------------|--------------------------------------|
D|-------------------------------------|--------------------------------------|
A|-------------------------------------|--------------------------------------|
D|-0000-3-0000-5-0000-6-0000-5-0000-3/5|0000-3-0000-5-0-6-0000-3-0000-5-00-6--|

G|-------------------------------------|--------------------------------------|
D|-------------------------------------|--------------------------------------|
A|-------------------------------------|--------------------------------------|
D|-0000-3-0000-5-0000-6-0000-5-0000-3/5|0000-3-0000-5-0-6-0000-3-0000-3-00-3--|X2

G|-------|---------|
D|-------|---------|
A|-------|---------|
D|-8-----|-5-6-7-8-|

G|-------------------------------------|--------------------------------------|
D|-------------------------------------|--------------------------------------|
A|-------------------------------------|--------------------------------------|
D|-0000-3-0000-5-0000-6-0000-5-0000-3/5|0000-3-0000-5-0-6-0000-3-0000-5-00-6--|

G|-------------------------------------|--------------------------------------|
D|-------------------------------------|--------------------------------------|
A|-------------------------------------|--------------------------------------|
D|-0000-3-0000-5-0000-6-0000-5-0000-3/5|0000-3-0000-5-0-6-0000-3-0000-3-00-3--|X1

G|-------|---------|---------|
D|-------|---------|---------|
A|-------|---------|---------|
D|-8-----|-5-6-7-8-|7-8-9-10-|

Chorus
G|---------------|---------------|---------------|---------------|
D|---------------|---------------|---------------|---------------|
A|---------------|3-333-3-3-333-3|1-111-1-1-111-1|1-111-1-1-111-1|
D|3-333-3-3-333-3|---------------|---------------|---------------| X2

G|---------------|---------------|---------------|---------------|---------------|
D|---------------|---------------|---------------|---------------|---------------|
A|---------------|---------------|3-333-3-3-333-3|1-111-1-1-111-1|1-111-1-1-111-1|
D|5-555-5-5-555-5|3-333-3-3-333-3|---------------|---------------|---------------|
 
(cont)
G|---------------|---------------|
D|---------------|---------------|
A|1-111-1-1-111-1|0-000-0-0-000-0|
D|---------------|---------------|

Verse
G|-------------------------------------|--------------------------------------|
D|-------------------------------------|--------------------------------------|
A|-------------------------------------|--------------------------------------|
D|-0000-3-0000-5-0000-6-0000-5-0000-3/5|0000-3-0000-5-0-6-0000-3-0000-5-00-6--|

G|-------------------------------------|--------------------------------------|
D|-------------------------------------|--------------------------------------|
A|-------------------------------------|--------------------------------------|
D|-0000-3-0000-5-0000-6-0000-5-0000-3/5|0000-3-0000-5-0-6-0000-3-0000-3-00-3--|X1

G|-------|---------|---------|
D|-------|---------|---------|
A|-------|---------|---------|
D|-8-----|-5-6-7-8-|7-8-9-10-|

Chorus (with solo)
G|---------------|---------------|---------------|---------------|
D|---------------|---------------|---------------|---------------|
A|---------------|3-333-3-3-333-3|1-111-1-1-111-1|1-111-1-1-111-1|
D|3-333-3-3-333-3|---------------|---------------|---------------| X2

G|---------------|---------------|---------------|---------------|---------------|
D|---------------|---------------|---------------|---------------|---------------|
A|---------------|---------------|3-333-3-3-333-3|1-111-1-1-111-1|1-111-1-1-111-1|
D|5-555-5-5-555-5|3-333-3-3-333-3|---------------|---------------|---------------|
 
(cont)
G|---------------|---------------|
D|---------------|---------------|
A|1-111-1-1-111-1|0-000-0-0-000-0|
D|---------------|---------------|

[ Tab from: http://www.guitartabs.cc/tabs/a/avenged_sevenfold/beast_and_the_harlot_btab.html ]
Verse
G|-------------------------------------|--------------------------------------|
D|-------------------------------------|--------------------------------------|
A|-------------------------------------|--------------------------------------|
D|-0000-3-0000-5-0000-6-0000-5-0000-3/5|0000-3-0000-5-0-6-0000-3-0000-5-00-6--|

G|-------------------------------------|--------------------------------------|
D|-------------------------------------|--------------------------------------|
A|-------------------------------------|--------------------------------------|
D|-0000-3-0000-5-0000-6-0000-5-0000-3/5|0000-3-0000-5-0-6-0000-3-0000-3-00-3--|X2

G|-------|---------|
D|-------|---------|
A|-------|---------|
D|-8-----|-5-6-7-8-|

G|-------------------------------------|--------------------------------------|
D|-------------------------------------|--------------------------------------|
A|-------------------------------------|--------------------------------------|
D|-0000-3-0000-5-0000-6-0000-5-0000-3/5|0000-3-0000-5-0-6-0000-3-0000-5-00-6--|

G|-------------------------------------|--------------------------------------|
D|-------------------------------------|--------------------------------------|
A|-------------------------------------|--------------------------------------|
D|-0000-3-0000-5-0000-6-0000-5-0000-3/5|0000-3-0000-5-0-6-0000-3-0000-3-00-3--|X1

G|-------|---------|---------|
D|-------|---------|---------|
A|-------|---------|---------|
D|-8-----|-5-6-7-8-|7-8-9-10-|

Chorus
G|---------------|---------------|---------------|---------------|
D|---------------|---------------|---------------|---------------|
A|---------------|3-333-3-3-333-3|1-111-1-1-111-1|1-111-1-1-111-1|
D|3-333-3-3-333-3|---------------|---------------|---------------| X2

G|---------------|---------------|---------------|---------------|---------------|
D|---------------|---------------|---------------|---------------|---------------|
A|---------------|---------------|3-333-3-3-333-3|1-111-1-1-111-1|1-111-1-1-111-1|
D|5-555-5-5-555-5|3-333-3-3-333-3|---------------|---------------|---------------|
 
(cont)
G|---------------|---------------|
D|---------------|---------------|
A|1-111-1-1-111-1|0-000-0-0-000-0|
D|---------------|---------------|

Link to bridge
G|-----|-----|-----|-----|-----|-----|-----|-----|
D|-----|-----|-----|-----|-----|-----|-----|-----|
A|-----|-----|-----|-----|-----|-----|-----|-----|
D|--0--|--0--|--0--|--0--|--0--|--0--|--0--|--0--|

Bridge
G|----------------|-------------|
D|----------------|-------------|
A|-5-3------------|-------------|
D|-----3-5-6-5-3-5|0-3-5-6-5-3-0|X8

G|-------|---------|---------|
D|-------|---------|---------|
A|-------|---------|---------|
D|-8-----|-5-6-7-8-|7-8-9-10-|

Chorus
G|---------------|---------------|---------------|---------------|
D|---------------|---------------|---------------|---------------|
A|---------------|3-333-3-3-333-3|1-111-1-1-111-1|1-111-1-1-111-1|
D|3-333-3-3-333-3|---------------|---------------|---------------| X2

G|---------------|---------------|---------------|---------------|---------------|
D|---------------|---------------|---------------|---------------|---------------|
A|---------------|---------------|3-333-3-3-333-3|1-111-1-1-111-1|1-111-1-1-111-1|
D|5-555-5-5-555-5|3-333-3-3-333-3|---------------|---------------|---------------|
 
(cont)
G|---------------|---------------|
D|---------------|---------------|
A|1-111-1-1-111-1|0-000-0-0-000-0|
D|---------------|---------------|

Chorus up a key
G|---------------|---------------|---------------|---------------|
D|---------------|2-222-2-2-222-2|0-000-0-0-000-0|0-000-0-0-000-0|
A|0-000-0-0-000-0|---------------|---------------|---------------|
D|---------------|---------------|---------------|---------------|X2

G|-----------------------------------------------|---------------|-------------|
D|---------------|---------------|2-222-2-2-222-2|0-000-0-0-000-0|0-000-0-0-000|
A|2-222-2-2-222-2|0-000-0-0-000-0|---------------|---------------|-------------|
D|-----------------------------------------------|---------------|-------------|

(cont)
G|---------------|---------------|
D|0-000-0-0-000-0|---------------|
A|---------------|4-444-4-4-444-4|
D|---------------|---------------|

G|-----------------------------------------------------------|
D|-----------------------------------------------------------|
A|-9-----5-----4----3-----8----4-----------------------------|
D|----------------------------------8-----7-----0-(let ring)-|

| /  slide up
| \  slide down
| h  hammer-on
| p  pull-off
| ~  vibrato
| +  harmonic
| x  Mute note
Comments