Avenged Sevenfold - Bat Country Chords & Tabs

 

Bat Country Chords & Tabs

Avenged Sevenfold Chords & Tabs

Version: 5 Type: Tab 0 ratings
1 star 2 stars 3 stars 4 stars 5 stars
comments

Bat Country Tab

Bat Country (Duh!)
< = Bend

E--10------------------------------------------------------------------------|
B--13-<---10-----8---------------8--9--11--9--11--13-11--13--15<-------------|
G-----------12----10--7--8--10-----------------------------------------------|
D----------------------------------------------------------------------------|
A----------------------------------------------------------------------------|
D----------------------------------------------------------------------------|


E----------------------------------------------------------------------------|
B-15<------------------------------------------------------------------------|
G-----------------------------------------------------------------------12---|
D----------10<---10<----10<----12---15--10<--10<-10<--12---------------------|
A----------------------------------------------------------------------------|
D------0---------------------------------------------------------------------|
Dive Bomb

E---------------------------------------------------------------------------|
B--------------------------------13<--13-12-10--15<--15-14-13G-----14<---14-|
D-10<--10<-10<-12-----------------------------------------------------------|
A---------------------------------------------------------------------------|
D---------------------------------------------------------------------------|

E-13<---13-----------------15<---18-17-16-15-13-15<-----------------|
b--------------15--14--13-------------------------------------------|
g-------------------------------------------------------------------|
d-------------------------------------------------------------------|
a-------------------------------------------------------------------|
d-------------------------------------------------------------------|
[ Tab from: http://www.guitartabs.cc/tabs/a/avenged_sevenfold/bat_country_tab_ver_5.html ]
e-15<---15<---18---17--16----------------------------------------------|
b---------------------------------------------13-13-13--15<-15<--------|
g---------------------------------13-13-13-----------------------------|
d----------------------------------------------------------------------|
a----------------------------------------------------------------------|
d----------------------------------------------------------------------|

e--10-13-14<---------------13-10----------------------------------------|
b---------------------------15--------10--------------------------------|
g------------------------14--------------10-----------------------------|
d-----------------12-15-------------------------------------------------|
a-----------------------------------------------------------------------|
d-----------------------------------------------------------------------|


e-17-18-17-16-17-18-17-16-17-17-17-17-12-{11-12-13-14-13-12-11-------|x2
b--------------------------------------------------------------------|
g--------------------------------------------------------------------|
d--------------------------------------------------------------------|
a--------------------------------------------------------------------|
d--------------------------------------------------------------------|

e-12-13-14-15-14-13-12(x2)-13-14-15-16-15-14-1--------------------------|3(x2)
b-----------------------------------------------------------------------|
g-----------------------------------------------------------------------|
d-----------------------------------------------------------------------|
a-----------------------------------------------------------------------|
d-----------------------------------------------------------------------|


e-14-15-16-17-16-15-14-15-16-17-18-16-17-18-19-17-18-19-20<------------|
b----------------------------------------------------------------------|
g----------------------------------------------------------------------|
d----------------------------------------------------------------------|
a----------------------------------------------------------------------|
d----------------------------------------------------------------------|

yo it took me a while to actually play it but i got it my name is Eric Chavez u got any 
my email is raphater47@yahoo.com
and thanks to my friend corey for the tab i just put it on the site haha
A7X for life!!!
-Eric
Comments