Avenged Sevenfold - Bat Country Chords & Tabs

 

Avenged Sevenfold Chords & Tabs

Version: 2 Type: Bass Tab 0 ratings
1 star 2 stars 3 stars 4 stars 5 stars
comments

Bat Country Bass Tab

   
----------------------------------------------------------------------------
			     Bat Country - Avenged Sevenfold
----------------------------------------------------------------------------

Tabbed By : llama_slap 
e-mail: sk84life@adelphia.net
Tuning:Drop D (D A D G)
			The usual: RATE AND COMMENT, or else........or else 
                          something bad. Boo. Also, EVERYTHING with the let 
                          ring parenthesis around it, you strike.
                         Ex. (6)- strike the 6, THEN let it ring.



G|-----------------------------------------------------------------------|
D|-----------------------------------------------------------------------|
A|-5-(5)--5-5------------------------------------------------------------|x4
D|-------------6-6--(0)--0--5-3-5-6-5-3-0--------------------------------|



G|-----------------------------------------------------------------------|
D|-----------------------------------------------------------------------|
A|-(5)-------------------------------------------------------------------|x2
D|------(6)--(5)--(3)----------------------------------------------------|



G|----------------------------------------------------------|
D|----------------------------------------------------------|1st verse x2
A|-55555555-------------------------------------------------|2nd verse x4
D|----------66666666-0000000000000000-----------------------|3rd verse x4
                     
2nd part of verse (play once for verse 1 & 2, don't play this for verse 3)
G|------------------------------------------------------------------------|
D|------------------------------------------------------------------------|
A|-55555555-----------------44444444-55555555-77777777--------------------|
D|---------66666666-55555555----------------------------33333333-22222222-|



G|----------------------------------------------------------------|
D|---------------------------------------------------------2-3----|
A|-5--5--5-5-------------------3-3-3--3-3-3-3-------(3)--0--------|x2
D|-----------0-5-5-(3)--0-3-00----------------3-3-0---------------|

- see notes above
 - play twice as you normally would

x2

G|-----------------------------------------------------------------------|
D|-----------2h3-5--5-5-5--5p3-------------------------------------------|
A|-5--5-5-5--------------------3--3-3-3--2-3-7-7-7-(7)--7-5h7------------|
D|-----------------------------------------------------------------------|

G|----------4----------2-------------------------------------------------|
D|-(7)--5-7---(5)--3-5---3----5/7-5-3h5-3-2-3-2--------------------------|
A|-----------------------------------------------------------------------|
D|-----------------------------------------------------------------------|

 x4


[ Tab from: http://www.guitartabs.cc/tabs/a/avenged_sevenfold/bat_country_btab_ver_2.html ]
G|---------------------------------------------------------------------|
D|---------------------------------------------------------------------|
A|-(5)-----------------------------------------------------------------|x2
D|------(6)--(5)--0----------------------------------------------------|
                                       
G|-----------------------------------------------------------------------|
D|-----------------------------------------------------------------------|
A|-55555555--------------------------------------------------------------|x4
D|----------66666666-00000000-0-3-5-(6)-666------------------------------|

G|-------------------------------------------------------------------------|
D|-------------------------------------------------------------------------|
A|-55555555-----------------44444444-55555555-77777777---------------------|
D|---------66666666-55555555--------------------------33333333-22222222-0--|

G|--------------------------------------------------|
D|--------------------------------------------------|
A|-------------------3333(3)--00000-44444-----------|x2
D|-0000(0)--5555(5)---------------------------------|

G|-------------------------------------------------------------------------|
D|-------------------------------------------------------------------------|
A|-------------------------------------5--4--8--7--------------------------|
D|-(0)--7-5-3-(2)--8-7-5---7--5--3--2--------------------------------------|

<3rd VERSE>- read instructions with verse, but omit the second part of the
              verse and play Bridge 2.



G|------------------------------------------------------------------------|
D|------------------------------------------------------------------------|
A|-55555555------------------------------------------33333333-------------|
D|---------66666666-000000000000000000-0-2--33333333----------5333333-(0)-|
                                              (this is right, just trust me)

G|-------------------------------------------------------------------------|
D|--------------------------------------------------7---77777777-----------|
A|--------------------33333333-1111111111111111-0000-000-------------------|
D|-000000-2--33333333------------------------------------------------------|
                               (1's not 11's)

- play twice as you normally would
- play twice as you normally would
-  play Bridge twice (yes, again)
           but end on this the 2nd time:
G|-------------------------------------------|
D|-(3)---------------------------------------|
A|-------------------------------------------|
D|-------------------------------------------|


|( ) let ring
| .  palm mute
| /  slide up
| \  slide down
| h  hammer-on
| p  pull-off
| ~  vibrato
| +  harmonic
| x  Mute note
============================================================================
Comments